Oops, an error
Loading. Please wait.

Lets Molest Tab

4 views 1 this week
no commentswrite comment
1 2 3 4 5
3 more votes to show rating
add to favorites
launch autoscroll
font size
0
reset
how to read this tab
guitar tuner
Autoscroll
slow
fast
+/-
esc
set tempo
stop
Help us to improve Ultimate-Guitar.com Take our survey!
×
Author
Difficulty
novice
                             ROSEMARY'S BABIES - LET'S MOLEST 

Tabbed by: Rottney (reconssuck)
E-mail: reconssuck@hotmail.de

Artist: Rosemary's Babies
Song: Let's Molest (On the Blood Lust EP this track is listed as "Let's Molest 10 Year Olds")
Album: Talking To The Dead Compilation (2004)

[Intro]

e|---------------------------------|------------------------------|
B|---------------------------------|------------------------------|
G|---------------------------------|------------------------------|
D|---------------------------------|------------------------------|
A|-------3-------3-------3-------3-|-------3-------3-------3------|
E|-5-0-1---5-0-1---5-0-1---5-0-1---|-5-0-1---5-0-1---5-0-1---5----|


[Verse] x2

e|---------------|-----------------|---------------|---------------------|
B|---------------|-----------------|---------------|---------------------|
G|---------------|-----------------|---------------|---------------------|
D|-9-9-9-9-9-9-9-|-9-9-9-9-9-9-9-9-|-7-7-7-7-7-7-7-|-7-7-7-7-7-7-7-7-----|
A|-7-7-7-7-7-7-7-|-7-7-7-7-7-7-7-7-|-5-5-5-5-5-5-5-|-5-5-5-5-5-5-5-5-----|
E|---------------|-----------------|---------------|---------------------|

e|---------------|---------------|---------------|--------------------|
B|---------------|---------------|---------------|--------------------|
G|---------------|---------------|---------------|--------------------|
D|-5-5-5-5-5-5-5-|-7-7-7-7-7-7-7-|-9-9-9-9-9-9-9-|-9-9-9-9-9-9-9-9----|
A|-3-3-3-3-3-3-3-|-5-5-5-5-5-5-5-|-7-7-7-7-7-7-7-|-7-7-7-7-7-7-7-7----|
E|---------------|---------------|---------------|--------------------|


[Chorus] x2

e|---------------|---------------|---------------|---------------|
B|---------------|---------------|---------------|---------------|
G|---------------|---------------|---------------|---------------|
D|---------------|---------------|---------------|---------------|
A|-5-5-5-5-5-5-5-|-7-7-7-7-7-7-7-|-8-8-8-8-8-8-8-|-3-3-3-3-3-3-3-|
E|-3-3-3-3-3-3-3-|-5-5-5-5-5-5-5-|-6-6-6-6-6-6-6-|-1-1-1-1-1-1-1-|


[Verse] x2

e|---------------|-----------------|---------------|---------------------|
B|---------------|-----------------|---------------|---------------------|
G|---------------|-----------------|---------------|---------------------|
D|-9-9-9-9-9-9-9-|-9-9-9-9-9-9-9-9-|-7-7-7-7-7-7-7-|-7-7-7-7-7-7-7-7-----|
A|-7-7-7-7-7-7-7-|-7-7-7-7-7-7-7-7-|-5-5-5-5-5-5-5-|-5-5-5-5-5-5-5-5-----|
E|---------------|-----------------|---------------|---------------------|

e|---------------|---------------|---------------|--------------------|
B|---------------|---------------|---------------|--------------------|
G|---------------|---------------|---------------|--------------------|
D|-5-5-5-5-5-5-5-|-7-7-7-7-7-7-7-|-9-9-9-9-9-9-9-|-9-9-9-9-9-9-9-9----|
A|-3-3-3-3-3-3-3-|-5-5-5-5-5-5-5-|-7-7-7-7-7-7-7-|-7-7-7-7-7-7-7-7----|
E|---------------|---------------|---------------|--------------------|


[Chorus] x2

e|---------------|---------------|---------------|---------------|
B|---------------|---------------|---------------|---------------|
G|---------------|---------------|---------------|---------------|
D|---------------|---------------|---------------|---------------|
A|-5-5-5-5-5-5-5-|-7-7-7-7-7-7-7-|-8-8-8-8-8-8-8-|-3-3-3-3-3-3-3-|
E|-3-3-3-3-3-3-3-|-5-5-5-5-5-5-5-|-6-6-6-6-6-6-6-|-1-1-1-1-1-1-1-|


[Verse] x2

e|---------------|-----------------|---------------|---------------------|
B|---------------|-----------------|---------------|---------------------|
G|---------------|-----------------|---------------|---------------------|
D|-9-9-9-9-9-9-9-|-9-9-9-9-9-9-9-9-|-7-7-7-7-7-7-7-|-7-7-7-7-7-7-7-7-----|
A|-7-7-7-7-7-7-7-|-7-7-7-7-7-7-7-7-|-5-5-5-5-5-5-5-|-5-5-5-5-5-5-5-5-----|
E|---------------|-----------------|---------------|---------------------|

e|---------------|---------------|---------------|--------------------|
B|---------------|---------------|---------------|--------------------|
G|---------------|---------------|---------------|--------------------|
D|-5-5-5-5-5-5-5-|-7-7-7-7-7-7-7-|-9-9-9-9-9-9-9-|-9-9-9-9-9-9-9-9----|
A|-3-3-3-3-3-3-3-|-5-5-5-5-5-5-5-|-7-7-7-7-7-7-7-|-7-7-7-7-7-7-7-7----|
E|---------------|---------------|---------------|--------------------|


[Chorus] x2

e|---------------|---------------|---------------|---------------|
B|---------------|---------------|---------------|---------------|
G|---------------|---------------|---------------|---------------|
D|---------------|---------------|---------------|---------------|
A|-5-5-5-5-5-5-5-|-7-7-7-7-7-7-7-|-8-8-8-8-8-8-8-|-3-3-3-3-3-3-3-|
E|-3-3-3-3-3-3-3-|-5-5-5-5-5-5-5-|-6-6-6-6-6-6-6-|-1-1-1-1-1-1-1-|


[Outro]

e|---------|
B|---------|
G|---------|
D|---------|
A|-9-------|
E|-7-------|



That's all
Enjoy and Rate
Suggest correction
Give kudos to tab author, rate the tab!
1 2 3 4 5
comments
print report bad tab
guest
You may want to rate the tab now too:
select rating
Wanna post a correction for this tab? Suggest correction