Oops, an error
Loading. Please wait.

One Dead Low Life Bass Tab

4 views 1 this week
no commentswrite comment
1 2 3 4 5
3 more votes to show rating
add to favorites
launch autoscroll
font size
0
reset
guitar tuner
Autoscroll
slow
fast
+/-
esc
set tempo
stop
Help us to improve Ultimate-Guitar.com Take our survey!
×
Author
Difficulty
novice
                             ROSEMARY'S BABIES - ONE DEAD LOW LIFE

Tabbed by: Rottney (reconssuck)
E-mail: reconssuck@hotmail.de

Artist: Rosemary's Babies
Song: One Dead Low Life
Album: Blood Lust EP

Tuning: Standard (EADG)





[Verse] x4

G|-----------------|---------------|
D|-----------------|---------------|
A|-----------------|---------------|
E|-3-3-3-3-3-3-3-3-|-5-5-5-5-5-6-5-|


[Chorus] 

G|-----------------|---------|-----------------|---------|
D|-----------------|---------|-----------------|---------|
A|-4-4-4-4-4-4-4-4-|-7-7-9-7-|-4-4-4-4-4-4-4-4-|-7-7-9-7-|
E|-----------------|---------|-----------------|---------|


[Verse] x4

G|-----------------|---------------|
D|-----------------|---------------|
A|-----------------|---------------|
E|-3-3-3-3-3-3-3-3-|-5-5-5-5-5-6-5-|

[Chorus] 

G|-----------------|---------|-----------------|---------|
D|-----------------|---------|-----------------|---------|
A|-4-4-4-4-4-4-4-4-|-7-7-9-7-|-4-4-4-4-4-4-4-4-|-7-7-9-7-|
E|-----------------|---------|-----------------|---------|

[End]

G|---------|
D|---------|
A|---------|
E|-3-------|



That's all
Enjoy and Rate
Suggest correction
Give kudos to tab author, rate the tab!
1 2 3 4 5
comments
print report bad tab
guest
You may want to rate the tab now too:
select rating
Wanna post a correction for this tab? Suggest correction