Oops, an error
Loading. Please wait.

Sex Maniac Bass Tab

4 views 1 this week
no commentswrite comment
1 2 3 4 5
3 more votes to show rating
add to favorites
launch autoscroll
font size
0
reset
guitar tuner
Autoscroll
slow
fast
+/-
esc
set tempo
stop
Help us to improve Ultimate-Guitar.com Take our survey!
×
Author
Difficulty
novice
                             ROSEMARY'S BABIES - SEX MANIAC

Tabbed by: Rottney (reconssuck)
E-mail: reconssuck@hotmail.de

Artist: Rosemary's Babies
Song: Sex Maniac
Album: Talking To The Dead Compilation (2004)





[Verse] x8 (bass enters after guitar plays this 4 times)

G|---------|----------|
D|---------|----------|
A|---------|----------|
E|-3-3-3-3-|-5-5-5-5--|

[Chorus] x2

G|-----------------|-----------------|
D|-----------------|-----------------|
A|-5-5-5-5-5-5-5-5-|-7-7-7-7-7-7-7-7-|
E|-----------------|-----------------|

[Verse] x8 

G|---------|----------|
D|---------|----------|
A|---------|----------|
E|-3-3-3-3-|-5-5-5-5--|

[Chorus] x2

G|-----------------|-----------------|
D|-----------------|-----------------|
A|-5-5-5-5-5-5-5-5-|-7-7-7-7-7-7-7-7-|
E|-----------------|-----------------|

[Verse] x8 

G|---------|----------|
D|---------|----------|
A|---------|----------|
E|-3-3-3-3-|-5-5-5-5--|

[End]

G|--------|
D|--------|
A|--------|
E|-5------|



That's all
Enjoy and Rate
Suggest correction
Give kudos to tab author, rate the tab!
1 2 3 4 5
comments
print report bad tab
guest
You may want to rate the tab now too:
select rating
Wanna post a correction for this tab? Suggest correction