Oops, an error
Loading. Please wait.

Small Minds Think Small Bass Tab

1 view 1 this week
no commentswrite comment
1 2 3 4 5
3 more votes to show rating
add to favorites
launch autoscroll
font size
0
reset
guitar tuner
Autoscroll
slow
fast
+/-
esc
set tempo
stop
Help us to improve Ultimate-Guitar.com Take our survey!
×
Author
Difficulty
novice
                             ROSEMARY'S BABIES - SMALL MINDS THINK SMALL

Tabbed by: Rottney (reconssuck)
E-mail: reconssuck@hotmail.de

Artist: Rosemary's Babies
Song: Small Minds Think Small
Album: Blood Lust EP


Tuning: Standard (EADG)

[Main Riff] x3

G|-----------------|-----------------|
D|-----------------|-----------------|
A|-4-4-4-4-4-4-4-4-|-0-0-0-0-0-0-0-0-|
E|-----------------|-----------------|

[Main Riff End]


G|-----------------|-----------------|
D|-----------------|-----------------|
A|-5-5-5-5-5-5-5-5-|-4-4-4-4-4-4-4-4-|
E|-----------------|-----------------|


[Chorus] x2

G|------|------|------|-------|
D|------|------|-4--4-|-------|
A|-2--2-|-5--5-|------|-2--2--|
E|------|------|------|-------|

[Main Riff] x3

G|-----------------|-----------------|
D|-----------------|-----------------|
A|-4-4-4-4-4-4-4-4-|-0-0-0-0-0-0-0-0-|
E|-----------------|-----------------|

[Main Riff End]


G|-----------------|-----------------|
D|-----------------|-----------------|
A|-5-5-5-5-5-5-5-5-|-4-4-4-4-4-4-4-4-|
E|-----------------|-----------------|

[Chorus] x2

G|------|------|------|-------|
D|------|------|-4--4-|-------|
A|-2--2-|-5--5-|------|-2--2--|
E|------|------|------|-------|

[Main Riff] x3

G|-----------------|-----------------|
D|-----------------|-----------------|
A|-4-4-4-4-4-4-4-4-|-0-0-0-0-0-0-0-0-|
E|-----------------|-----------------|

[Main Riff End]


G|-----------------|-----------------|
D|-----------------|-----------------|
A|-5-5-5-5-5-5-5-5-|-4-4-4-4-4-4-4-4-|
E|-----------------|-----------------|

[Chorus] x2

G|------|------|------|-------|
D|------|------|-4--4-|-------|
A|-2--2-|-5--5-|------|-2--2--|
E|------|------|------|-------|


That's all
Enjoy and Rate
Suggest correction
Give kudos to tab author, rate the tab!
1 2 3 4 5
comments
print report bad tab
guest
You may want to rate the tab now too:
select rating
Wanna post a correction for this tab? Suggest correction