Oops, an error
Loading. Please wait.

Small Minds Think Small Tab

4 views 1 this week
no commentswrite comment
1 2 3 4 5
3 more votes to show rating
add to favorites
launch autoscroll
font size
0
reset
how to read this tab
guitar tuner
Autoscroll
slow
fast
+/-
esc
set tempo
stop
Help us to improve Ultimate-Guitar.com Take our survey!
×
Author
Difficulty
novice
Tabbed by: Rottney (reconssuck)
E-mail: reconssuck@hotmail.de

Artist: Rosemary's Babies
Song: Small Minds Think Small
Album: Blood Lust EP

[Main Riff] x3
e|---------------|---------------|
B|---------------|---------------|
G|---------------|---------------|
D|-6-6-6-6-6-6-6-|-2-2-2-2-2-2-2-|
A|-4-4-4-4-4-4-4-|-0-0-0-0-0-0-0-|
E|---------------|---------------|

[Main Riff End]
e|---------------|---------------|
B|---------------|---------------|
G|---------------|---------------|
D|-7-7-7-7-7-7-7-|-6-6-6-6-6-6-6-|
A|-5-5-5-5-5-5-5-|-4-4-4-4-4-4-4-|
E|---------------|---------------|

[Chorus] x2
e|------------|-------------|
B|------------|-------------|
G|------------|-6--6--------|
D|-4--4--7--7-|-4--4--4--4--|
A|-2--2--5--5-|-------2--2--|
E|------------|-------------|

[Main Riff] x3
e|---------------|---------------|
B|---------------|---------------|
G|---------------|---------------|
D|-6-6-6-6-6-6-6-|-2-2-2-2-2-2-2-|
A|-4-4-4-4-4-4-4-|-0-0-0-0-0-0-0-|
E|---------------|---------------|

[Main Riff End]
e|---------------|---------------|
B|---------------|---------------|
G|---------------|---------------|
D|-7-7-7-7-7-7-7-|-6-6-6-6-6-6-6-|
A|-5-5-5-5-5-5-5-|-4-4-4-4-4-4-4-|
E|---------------|---------------|

[Chorus] x2
e|------------|-------------|
B|------------|-------------|
G|------------|-6--6--------|
D|-4--4--7--7-|-4--4--4--4--|
A|-2--2--5--5-|-------2--2--|
E|------------|-------------|

[Main Riff] x3
e|---------------|---------------|
B|---------------|---------------|
G|---------------|---------------|
D|-6-6-6-6-6-6-6-|-2-2-2-2-2-2-2-|
A|-4-4-4-4-4-4-4-|-0-0-0-0-0-0-0-|
E|---------------|---------------|

[Main Riff End]
e|---------------|---------------|
B|---------------|---------------|
G|---------------|---------------|
D|-7-7-7-7-7-7-7-|-6-6-6-6-6-6-6-|
A|-5-5-5-5-5-5-5-|-4-4-4-4-4-4-4-|
E|---------------|---------------|

[Chorus] x2
e|------------|-------------|
B|------------|-------------|
G|------------|-6--6--------|
D|-4--4--7--7-|-4--4--4--4--|
A|-2--2--5--5-|-------2--2--|
E|------------|-------------|
Suggest correction
Give kudos to tab author, rate the tab!
1 2 3 4 5
comments
print report bad tab
guest
You may want to rate the tab now too:
select rating
Wanna post a correction for this tab? Suggest correction