Oops, an error
Loading. Please wait.

Sounds Of Death Bass Tab

1 view 1 this week
no commentswrite comment
1 2 3 4 5
3 more votes to show rating
add to favorites
launch autoscroll
font size
0
reset
guitar tuner
Autoscroll
slow
fast
+/-
esc
set tempo
stop
Help us to improve Ultimate-Guitar.com Take our survey!
×
Author
Difficulty
novice
                             ROSEMARY'S BABIES - SOUNDS OF DEATH

Tabbed by: Rottney (reconssuck)
E-mail: reconssuck@hotmail.de

Artist: Rosemary's Babies
Song: Sounds Of Death
Album: Talking To The Dead Compilation (2004)




[Intro] x2

G|--------------------|
D|--------------------|
A|--------------------|
E|-0---7---3---0------|


[Verse] x2

G|---------------|---------------|-----------------|-------------|
D|---------------|---------------|-----------------|-------------|
A|---------------|---------------|-----------------|-------------|
E|-0-0-0-0-0-0-0-|-0-0-0-0-0-0-0-|-7-7-7-7-7-7-7-7-|-7-7-7-7-7-7-|

G|---------------|---------------|-----------------|-------------|
D|---------------|---------------|-----------------|-------------|
A|---------------|---------------|-----------------|-------------|
E|-3-3-3-3-3-3-3-|-3-3-3-3-3-3-3-|-0-0-0-0-0-0-0-0-|-0-0-0-0-0-0-|


[Verse Continuation] x2

G|---------------|---------------|-----------------|-------------|
D|---------------|---------------|-----------------|-------------|
A|-5-5-5-5-5-5-5-|-5-5-5-5-5-5-5-|-2-2-2-2-2-2-2-2-|-2-2-2-2-2-2-|
E|---------------|---------------|-----------------|-------------|

G|---------------|---------------|-----------------|-------------|
D|-2-2-2-2-2-2-2-|-2-2-2-2-2-2-2-|-----------------|-------------|
A|---------------|---------------|-0-0-0-0-0-0-0-0-|-0-0-0-0-0-0-|
E|---------------|---------------|-----------------|-------------|

[Verse] 

G|---------------|---------------|-----------------|-------------|
D|---------------|---------------|-----------------|-------------|
A|---------------|---------------|-----------------|-------------|
E|-0-0-0-0-0-0-0-|-0-0-0-0-0-0-0-|-7-7-7-7-7-7-7-7-|-7-7-7-7-7-7-|

G|---------------|---------------|-----------------|-------------|
D|---------------|---------------|-----------------|-------------|
A|---------------|---------------|-----------------|-------------|
E|-3-3-3-3-3-3-3-|-3-3-3-3-3-3-3-|-0-0-0-0-0-0-0-0-|-0-0-0-0-0-0-|

[Verse Variation]


G|---------------|---------------|-----------------|-------------|
D|---------------|---------------|-----------------|-------------|
A|---------------|---------------|-----------------|-------------|
E|-0-0-0-0-0-0-0-|-0-0-0-0-0-0-0-|-7-7-7-7-7-7-7-7-|-7-7-7-7-7-7-|

G|---------------|---------------|---------------|---------------|
D|---------------|---------------|---------------|---------------|
A|---------------|---------------|---------------|---------------|
E|-3-3-3-3-3-3-3-|-3-3-3-3-3-3-3-|-0---7---3---0-|-0---7---3---0-|

[Verse] x2

G|---------------|---------------|-----------------|-------------|
D|---------------|---------------|-----------------|-------------|
A|---------------|---------------|-----------------|-------------|
E|-0-0-0-0-0-0-0-|-0-0-0-0-0-0-0-|-7-7-7-7-7-7-7-7-|-7-7-7-7-7-7-|

G|---------------|---------------|-----------------|-------------|
D|---------------|---------------|-----------------|-------------|
A|---------------|---------------|-----------------|-------------|
E|-3-3-3-3-3-3-3-|-3-3-3-3-3-3-3-|-0-0-0-0-0-0-0-0-|-0-0-0-0-0-0-|

[Verse Continuation] x2

G|---------------|---------------|-----------------|-------------|
D|---------------|---------------|-----------------|-------------|
A|-5-5-5-5-5-5-5-|-5-5-5-5-5-5-5-|-2-2-2-2-2-2-2-2-|-2-2-2-2-2-2-|
E|---------------|---------------|-----------------|-------------|

G|---------------|---------------|-----------------|-------------|
D|-2-2-2-2-2-2-2-|-2-2-2-2-2-2-2-|-----------------|-------------|
A|---------------|---------------|-0-0-0-0-0-0-0-0-|-0-0-0-0-0-0-|
E|---------------|---------------|-----------------|-------------|


[Verse] 

G|---------------|---------------|-----------------|-------------|
D|---------------|---------------|-----------------|-------------|
A|---------------|---------------|-----------------|-------------|
E|-0-0-0-0-0-0-0-|-0-0-0-0-0-0-0-|-7-7-7-7-7-7-7-7-|-7-7-7-7-7-7-|

G|---------------|---------------|-----------------|-------------|
D|---------------|---------------|-----------------|-------------|
A|---------------|---------------|-----------------|-------------|
E|-3-3-3-3-3-3-3-|-3-3-3-3-3-3-3-|-0-0-0-0-0-0-0-0-|-0-0-0-0-0-0-|

[Last Verse Variation]


G|---------------|---------------|-----------------|-------------|
D|---------------|---------------|-----------------|-------------|
A|---------------|---------------|-----------------|-------------|
E|-0-0-0-0-0-0-0-|-0-0-0-0-0-0-0-|-7-7-7-7-7-7-7-7-|-7-7-7-7-7-7-|

G|---------------|---------------|---------------|------|
D|---------------|---------------|---------------|------|
A|---------------|---------------|---------------|------|
E|-3-3-3-3-3-3-3-|-3-3-3-3-3-3-3-|-0---7---3---0-|-0----|





That's all
Enjoy and Rate
Suggest correction
Give kudos to tab author, rate the tab!
1 2 3 4 5
comments
print report bad tab
guest
You may want to rate the tab now too:
select rating
Wanna post a correction for this tab? Suggest correction