Oops, an error
Loading. Please wait.

Sounds Of Death Tab

1 view 1 this week
no commentswrite comment
1 2 3 4 5
3 more votes to show rating
add to favorites
launch autoscroll
font size
0
reset
how to read this tab
guitar tuner
Autoscroll
slow
fast
+/-
esc
set tempo
stop
Help us to improve Ultimate-Guitar.com Take our survey!
×
Author
Difficulty
novice
                             ROSEMARY'S BABIES - SOUNDS OF DEATH

Tabbed by: Rottney (reconssuck)
E-mail: reconssuck@hotmail.de

Artist: Rosemary's Babies
Song: Sounds Of Death
Album: Talking To The Dead Compilation (2004)




[Intro] x2

e|--------------------|
B|--------------------|
G|--------------------|
D|--------------------|
A|-2---9---5---2------|
E|-0---7---3---0------|


[Verse] x2

e|---------------|---------------|---------------|---------------|
B|---------------|---------------|---------------|---------------|
G|---------------|---------------|---------------|---------------|
D|---------------|---------------|---------------|---------------|
A|-2-2-2-2-2-2-2-|-2-2-2-2-2-2-2-|-9-9-9-9-9-9-9-|-9-9-9-9-9-9-9-|
E|-0-0-0-0-0-0-0-|-0-0-0-0-0-0-0-|-7-7-7-7-7-7-7-|-7-7-7-7-7-7-7-|

e|---------------|---------------|---------------|---------------|
B|---------------|---------------|---------------|---------------|
G|---------------|---------------|---------------|---------------|
D|---------------|---------------|---------------|---------------|
A|-5-5-5-5-5-5-5-|-5-5-5-5-5-5-5-|-2-2-2-2-2-2-2-|-2-2-2-2-2-2-2-|
E|-3-3-3-3-3-3-3-|-3-3-3-3-3-3-3-|-0-0-0-0-0-0-0-|-0-0-0-0-0-0-0-|


[Verse Continuation] x2

e|---------------|---------------|---------------|---------------|
B|---------------|---------------|---------------|---------------|
G|---------------|---------------|---------------|---------------|
D|-7-7-7-7-7-7-7-|-7-7-7-7-7-7-7-|-4-4-4-4-4-4-4-|-4-4-4-4-4-4-4-|
A|-5-5-5-5-5-5-5-|-5-5-5-5-5-5-5-|-2-2-2-2-2-2-2-|-2-2-2-2-2-2-2-|
E|---------------|---------------|---------------|---------------|

e|---------------|---------------|---------------|---------------|
B|---------------|---------------|---------------|---------------|
G|---------------|---------------|---------------|---------------|
D|-9-9-9-9-9-9-9-|-9-9-9-9-9-9-9-|---------------|---------------|
A|-7-7-7-7-7-7-7-|-7-7-7-7-7-7-7-|-7-7-7-7-7-7-7-|-7-7-7-7-7-7-7-|
E|---------------|---------------|-5-5-5-5-5-5-5-|-5-5-5-5-5-5-5-|

[Verse]

e|---------------|---------------|---------------|---------------|
B|---------------|---------------|---------------|---------------|
G|---------------|---------------|---------------|---------------|
D|---------------|---------------|---------------|---------------|
A|-2-2-2-2-2-2-2-|-2-2-2-2-2-2-2-|-9-9-9-9-9-9-9-|-9-9-9-9-9-9-9-|
E|-0-0-0-0-0-0-0-|-0-0-0-0-0-0-0-|-7-7-7-7-7-7-7-|-7-7-7-7-7-7-7-|

e|---------------|---------------|---------------|---------------|
B|---------------|---------------|---------------|---------------|
G|---------------|---------------|---------------|---------------|
D|---------------|---------------|---------------|---------------|
A|-5-5-5-5-5-5-5-|-5-5-5-5-5-5-5-|-2-2-2-2-2-2-2-|-2-2-2-2-2-2-2-|
E|-3-3-3-3-3-3-3-|-3-3-3-3-3-3-3-|-0-0-0-0-0-0-0-|-0-0-0-0-0-0-0-|

[Verse Variation]

e|---------------|---------------|---------------|---------------|
B|---------------|---------------|---------------|---------------|
G|---------------|---------------|---------------|---------------|
D|---------------|---------------|---------------|---------------|
A|-2-2-2-2-2-2-2-|-2-2-2-2-2-2-2-|-9-9-9-9-9-9-9-|-9-9-9-9-9-9-9-|
E|-0-0-0-0-0-0-0-|-0-0-0-0-0-0-0-|-7-7-7-7-7-7-7-|-7-7-7-7-7-7-7-|

e|---------------|---------------|---------------|---------------|
B|---------------|---------------|---------------|---------------|
G|---------------|---------------|---------------|---------------|
D|---------------|---------------|---------------|---------------|
A|-5-5-5-5-5-5-5-|-5-5-5-5-5-5-5-|-2---9---5---2-|2----9---5---2-|
E|-3-3-3-3-3-3-3-|-3-3-3-3-3-3-3-|-0---7---3---0-|0----7---3---0-|


[Verse] x2

e|---------------|---------------|---------------|---------------|
B|---------------|---------------|---------------|---------------|
G|---------------|---------------|---------------|---------------|
D|---------------|---------------|---------------|---------------|
A|-2-2-2-2-2-2-2-|-2-2-2-2-2-2-2-|-9-9-9-9-9-9-9-|-9-9-9-9-9-9-9-|
E|-0-0-0-0-0-0-0-|-0-0-0-0-0-0-0-|-7-7-7-7-7-7-7-|-7-7-7-7-7-7-7-|

e|---------------|---------------|---------------|---------------|
B|---------------|---------------|---------------|---------------|
G|---------------|---------------|---------------|---------------|
D|---------------|---------------|---------------|---------------|
A|-5-5-5-5-5-5-5-|-5-5-5-5-5-5-5-|-2-2-2-2-2-2-2-|-2-2-2-2-2-2-2-|
E|-3-3-3-3-3-3-3-|-3-3-3-3-3-3-3-|-0-0-0-0-0-0-0-|-0-0-0-0-0-0-0-|

[Verse Continuation] x2

e|---------------|---------------|---------------|---------------|
B|---------------|---------------|---------------|---------------|
G|---------------|---------------|---------------|---------------|
D|-7-7-7-7-7-7-7-|-7-7-7-7-7-7-7-|-4-4-4-4-4-4-4-|-4-4-4-4-4-4-4-|
A|-5-5-5-5-5-5-5-|-5-5-5-5-5-5-5-|-2-2-2-2-2-2-2-|-2-2-2-2-2-2-2-|
E|---------------|---------------|---------------|---------------|

e|---------------|---------------|---------------|---------------|
B|---------------|---------------|---------------|---------------|
G|---------------|---------------|---------------|---------------|
D|-9-9-9-9-9-9-9-|-9-9-9-9-9-9-9-|---------------|---------------|
A|-7-7-7-7-7-7-7-|-7-7-7-7-7-7-7-|-7-7-7-7-7-7-7-|-7-7-7-7-7-7-7-|
E|---------------|---------------|-5-5-5-5-5-5-5-|-5-5-5-5-5-5-5-|


[Verse] 

e|---------------|---------------|---------------|---------------|
B|---------------|---------------|---------------|---------------|
G|---------------|---------------|---------------|---------------|
D|---------------|---------------|---------------|---------------|
A|-2-2-2-2-2-2-2-|-2-2-2-2-2-2-2-|-9-9-9-9-9-9-9-|-9-9-9-9-9-9-9-|
E|-0-0-0-0-0-0-0-|-0-0-0-0-0-0-0-|-7-7-7-7-7-7-7-|-7-7-7-7-7-7-7-|

e|---------------|---------------|---------------|---------------|
B|---------------|---------------|---------------|---------------|
G|---------------|---------------|---------------|---------------|
D|---------------|---------------|---------------|---------------|
A|-5-5-5-5-5-5-5-|-5-5-5-5-5-5-5-|-2-2-2-2-2-2-2-|-2-2-2-2-2-2-2-|
E|-3-3-3-3-3-3-3-|-3-3-3-3-3-3-3-|-0-0-0-0-0-0-0-|-0-0-0-0-0-0-0-|

[Last Verse Variation]

e|---------------|---------------|---------------|---------------|
B|---------------|---------------|---------------|---------------|
G|---------------|---------------|---------------|---------------|
D|---------------|---------------|---------------|---------------|
A|-2-2-2-2-2-2-2-|-2-2-2-2-2-2-2-|-9-9-9-9-9-9-9-|-9-9-9-9-9-9-9-|
E|-0-0-0-0-0-0-0-|-0-0-0-0-0-0-0-|-7-7-7-7-7-7-7-|-7-7-7-7-7-7-7-|

e|---------------|---------------|---------------|-------|
B|---------------|---------------|---------------|-------|
G|---------------|---------------|---------------|-------|
D|---------------|---------------|---------------|-------|
A|-5-5-5-5-5-5-5-|-5-5-5-5-5-5-5-|-2---9---5---2-|-2-----|
E|-3-3-3-3-3-3-3-|-3-3-3-3-3-3-3-|-0---7---3---0-|-0-----|



That's all
Enjoy and Rate
Suggest correction
Give kudos to tab author, rate the tab!
1 2 3 4 5
comments
print report bad tab
guest
You may want to rate the tab now too:
select rating
Wanna post a correction for this tab? Suggest correction