Oops, an error
Loading. Please wait.

Talking To The Dead Bass Tab

13 views 1 this week
no commentswrite comment
1 2 3 4 5
3 more votes to show rating
add to favorites
launch autoscroll
font size
0
reset
guitar tuner
Autoscroll
slow
fast
+/-
esc
set tempo
stop
Help us to improve Ultimate-Guitar.com Take our survey!
×
Author
Difficulty
novice
                             ROSEMARY'S BABIES - TALKING TO THE DEAD

Tabbed by: Rottney (reconssuck)
E-mail: reconssuck@hotmail.de

Artist: Rosemary's Babies
Song: Talking To The Dead
Album: Blood Lust EP


(bass is silent during intro)

[Verse] x4

G|-----------------|-----------------|
D|-----------------|-----------------|
A|-----------------|-----------------|
E|-1-1-1-1-1-1-1-1-|-2-2-2-2-2-2-2-2-|

[Chorus] x4

G|-----------------|-----------------|
D|-----------------|-----------------|
A|-----------------|-----------------|
E|-5-5-5-5-5-5-5-5-|-6-6-6-6-6-6-6-6-|

[Bridge] x2


G|-----------------|-----------------|-----------------|---------------|
D|-----------------|-----------------|-----------------|---------------|
A|-7-7-7-7-7-7-7-7-|-5-5-5-5-5-5-5-5-|-3-3-3-3-3-3-3-3-|-2-2-2-2-2-2-2-|
E|-----------------|-----------------|-----------------|---------------|

[Verse] x4

G|-----------------|-----------------|
D|-----------------|-----------------|
A|-----------------|-----------------|
E|-1-1-1-1-1-1-1-1-|-2-2-2-2-2-2-2-2-|

[Chorus] x4

G|-----------------|-----------------|
D|-----------------|-----------------|
A|-----------------|-----------------|
E|-5-5-5-5-5-5-5-5-|-6-6-6-6-6-6-6-6-|

[Outro] x3

G|-----------------|-----------------|------|
D|-----------------|-----------------|------|
A|-----------------|-----------------|------|
E|-1-1-1-1-1-1-1-1-|-2-2-2-2-2-2-2-2-|-3-2--|

[End]

G|-----------------|-----------------|-------|
D|-----------------|-----------------|-------|
A|-----------------|-----------------|-------|
E|-1-1-1-1-1-1-1-1-|-2-2-2-2-2-2-2-2-|-3-2-1-|


That's all
Enjoy and Rate
Suggest correction
Give kudos to tab author, rate the tab!
1 2 3 4 5
comments
print report bad tab
guest
You may want to rate the tab now too:
select rating
Wanna post a correction for this tab? Suggest correction