Oops, an error
Loading. Please wait.

Thats Alright Thats Ok Bass Tab

7 views 1 this week
no commentswrite comment
1 2 3 4 5
3 more votes to show rating
add to favorites
launch autoscroll
font size
0
reset
guitar tuner
Autoscroll
slow
fast
+/-
esc
set tempo
stop
Help us to improve Ultimate-Guitar.com Take our survey!
×
Author
Difficulty
novice
                             ROSEMARY'S BABIES - THAT'S ALRIGHT THAT'S OK

Tabbed by: Rottney (reconssuck)
E-mail: reconssuck@hotmail.de

Artist: Rosemary's Babies
Song: That's Alright That's Ok
Album: Blood Lust EP



[Main Riff] x2

G|---------------|---------------|---------------|----------------|
D|---------------|---------------|---------------|----------------|
A|-2-2-2-2-2-2-2-|---------------|---------------|----------------|
E|---------------|-3-3-3-3-3-3-3-|-0-0-0-0-0-0-0-|-2-2-2-2-2-2-2--|

[Main Riff Variation]

G|---------------|---------------|---------------|----------------|
D|---------------|---------------|---------------|----------------|
A|-3-3-3-3-3-3-3-|-5-5-5-5-5-5-5-|---------------|-3-3-3--1-1-1---|
E|---------------|---------------|-3-3-3--1-1-1--|----------------|


[Main Riff] 

G|---------------|---------------|---------------|----------------|
D|---------------|---------------|---------------|----------------|
A|-2-2-2-2-2-2-2-|---------------|---------------|----------------|
E|---------------|-3-3-3-3-3-3-3-|-0-0-0-0-0-0-0-|-2-2-2-2-2-2-2--|


[Main Riff End] 

G|-------|--------|-------|--------|-------|-------|-------|------|
D|-------|--------|-------|--------|-------|-------|-------|------|
A|-------|--------|-------|--------|-------|-------|-------|------|
E|-5-5-5-|-4-4-4--|-5-5-5-|-4-4-4--|-3-3-3-|-2-2-2-|-3-3-3-|-0----|


[Outro]

G|-----------------|-----------------|-----------------|------------------|
D|-----------------|-----------------|-----------------|------------------|
A|-0-0-0-0-0-0-0-0-|-2-2-2-2-2-2-2-2-|-0-0-0-0-0-0-0-0-|-2-2-2-2-2-2-2-2--|
E|-----------------|-----------------|-----------------|------------------|

G|-----------------|-----------------|-----------------|------------------|
D|-----------------|-----------------|-----------------|------------------|
A|-----------------|-----------------|-----------------|------------------|
E|-2-2-2-2-2-2-2-2-|-0-0-0-0-0-0-0-0-|-2-2-2-2-2-2-2-2-|-0-0-0-0-0-0-0-0--|


G|-----|-------|
D|-----|-------|
A|-----|-------|
E|-2---|--2----|



That's all
Enjoy and Rate

Suggest correction
Give kudos to tab author, rate the tab!
1 2 3 4 5
comments
print report bad tab
guest
You may want to rate the tab now too:
select rating
Wanna post a correction for this tab? Suggest correction