Oops, an error
Loading. Please wait.

What I Hate Tab

1 view 1 this week
no commentswrite comment
1 2 3 4 5
3 more votes to show rating
add to favorites
launch autoscroll
font size
0
reset
how to read this tab
guitar tuner
Autoscroll
slow
fast
+/-
esc
set tempo
stop
Help us to improve Ultimate-Guitar.com Take our survey!
×
Author
Difficulty
novice
                             ROSEMARY'S BABIES - WHAT I HATE

Tabbed by: Rottney (reconssuck)
E-mail: reconssuck@hotmail.de

Artist: Rosemary's Babies
Song: What I Hate
Album: Talking To The Dead Compilation (2004)

[Main Riff] x4

e|---------------|---------------|
B|---------------|---------------|
G|---------------|-8-8-8-8-8-8-8-|
D|-6-6-6-6-6-6-6-|-6-6-6-6-6-6-6-|
A|-4-4-4-4-4-4-4-|---------------|
E|---------------|---------------|

[Outro]

e|----------|
B|----------|
G|----------|
D|-6----6---|
A|-4----4---|
E|----------|
Suggest correction
Give kudos to tab author, rate the tab!
1 2 3 4 5
comments
print report bad tab
guest
You may want to rate the tab now too:
select rating
Wanna post a correction for this tab? Suggest correction