Oops, an error
Loading. Please wait.

You Just Dont Rate Bass Tab

4 views 1 this week
no commentswrite comment
1 2 3 4 5
3 more votes to show rating
add to favorites
launch autoscroll
font size
0
reset
guitar tuner
Autoscroll
slow
fast
+/-
esc
set tempo
stop
Help us to improve Ultimate-Guitar.com Take our survey!
×
Author
Difficulty
novice
                             ROSEMARY'S BABIES - YOU JUST DON'T RATE

Tabbed by: Rottney (reconssuck)
E-mail: reconssuck@hotmail.de

Artist: Rosemary's Babies
Song: You Just Don't Rate
Album: Talking To The Dead Compilation (2004)




[Intro]

G|---------|
D|---------|
A|---------|
E|-5--4-3--|

[Verse] x2

G|-------------------------------|-------------------------|
D|-------------------------------|-------------------------|
A|-2-2-2-2-2-2-2-2-2-2-2-2-2-2-2-|-4-4-4-4-4-4-4-4-4-4-4-4-|
E|-------------------------------|-------------------------|


[Fill]

G|---------|
D|---------|
A|---------|
E|-5--4-3--|


[Verse variation] x2

G|-------------------------------|-------------------------|
D|-------------------------------|-------------------------|
A|-2-2-2-2-2-2-2-2-2-2-2-2-2-2-2-|-7-7-7-7-7-7-7-7-7-7-7-7-|
E|-------------------------------|-------------------------|


G|-------------------------------|-------------------------|
D|-------------------------------|-------------------------|
A|-2-2-2-2-2-2-2-2-2-2-2-2-2-2-2-|-7-7-7-7-7-7-7-5-5-5-5-5-|
E|-------------------------------|-------------------------|

[Fill]

G|---------|
D|---------|
A|---------|
E|-5--4-3--|

[Bridge] x2

G|---------------|---------------|---------------|---------------|
D|---------------|---------------|---------------|---------------|
A|---------------|-1-1-1-1-1-1-1-|---------------|-3-3-3-3-3-3-3-|
E|-1-1-1-1-1-1-1-|---------------|-3-3-3-3-3-3-3-|---------------|


[Fill]

G|---------|
D|---------|
A|---------|
E|-5--4-3--|


[Verse] x2

G|-------------------------------|-------------------------|
D|-------------------------------|-------------------------|
A|-2-2-2-2-2-2-2-2-2-2-2-2-2-2-2-|-4-4-4-4-4-4-4-4-4-4-4-4-|
E|-------------------------------|-------------------------|

[Fill]

G|---------|
D|---------|
A|---------|
E|-5--4-3--|


[Verse variation] 

G|-------------------------------|-------------------------|
D|-------------------------------|-------------------------|
A|-2-2-2-2-2-2-2-2-2-2-2-2-2-2-2-|-7-7-7-7-7-7-7-7-7-7-7-7-|
E|-------------------------------|-------------------------|


G|-------------------------------|-------------------------|
D|-------------------------------|-------------------------|
A|-2-2-2-2-2-2-2-2-2-2-2-2-2-2-2-|-7-7-7-7-7-7-7-5-5-5-5-5-|
E|-------------------------------|-------------------------|

[Fill]

G|---------|
D|---------|
A|---------|
E|-5--4-3--|


[Verse] x2

G|-------------------------------|-------------------------|
D|-------------------------------|-------------------------|
A|-2-2-2-2-2-2-2-2-2-2-2-2-2-2-2-|-4-4-4-4-4-4-4-4-4-4-4-4-|
E|-------------------------------|-------------------------|

[Fill]

G|---------|
D|---------|
A|---------|
E|-5--4-3--|


[Verse variation] 

G|-------------------------------|-------------------------|
D|-------------------------------|-------------------------|
A|-2-2-2-2-2-2-2-2-2-2-2-2-2-2-2-|-7-7-7-7-7-7-7-7-7-7-7-7-|
E|-------------------------------|-------------------------|


G|-------------------------------|-------------------------|
D|-------------------------------|-------------------------|
A|-2-2-2-2-2-2-2-2-2-2-2-2-2-2-2-|-7-7-7-7-7-7-7-5-5-5-5-5-|
E|-------------------------------|-------------------------|

[End]

G|-----------|
D|-----------|
A|-----------|
E|-5--4-3--5-|






That's all
Enjoy and Rate
Suggest correction
Give kudos to tab author, rate the tab!
1 2 3 4 5
comments
print report bad tab
guest
You may want to rate the tab now too:
select rating
Wanna post a correction for this tab? Suggest correction