Oops, an error
Loading. Please wait.

Como El Pico De Un Colchon tab

by Rosendo
49 views 1 this week
no commentswrite comment
1 2 3 4 5
3 more votes to show rating
add to favorites
×
Save as Personal and add changes to this tab that will be seen only by you. Learn more ›
×
You can save this tab as Personal to edit and correct it or add notes. All changes will be seen only by you. Learn more »
launch autoscroll
font size
0
reset
how to read this tab
guitar tuner
edit
Autoscroll
slow
fast
+/-
esc
set tempo
stop
@Tab by Page Piru

GRUPO:ROSENDO
ALBUM:
CANCION:COMO EL PICO DE UN COLCHON


Intro 

F  (Empieza kon palm mute y luego sin el)


Estrofa

F(p.m)                   A#    C

Komo el pico de un colchon el gesto impas

F                        A#    C
La pregunta del millon

F                        A#    C
Dar cada vez al personal un alegron

F                        A#    C
digno de televisar

Estribillo

A#                          F  G     C#  C
Nunca sabes lo que pasa alrededor
A#                          F  G     C#  C
No te extrañe ke se den el revolkon


Estribillo 2

G            G          G              G         C# C C# C C# C 
¿No te tienen dicho ke te kedes aki fuera?

G            G          G              G         C# C C# C C# C 
SI,         SI          SI             SI

C                     C                   
Y te komen el ocipital abusando de tu libertad

Solo


E|--------------------------------------------------------------------------------------------------|
B|--------------------------------------------------------------------------------------------------|
G|-9s10--9s10--9s10--9s10--------------------9s10--9s10--9s10--9s10---------------------------------|
D|--------------------------------------------------------------------------------------------------|
A|-------------------------7s8-7s8--12-8-10---------------------------7s8-8-8-7-8-10-8-7-8-10s12--10|
E|--------------------------------------------------------------------------------------------------|

E|-----------------------------------------------------------------------------------------|
B|-----------------------------------------------------------------------------------------|
G|-10p9p10p9---------12-10-9-10-9------------------------------------s7-7---s9---9---------|
D|-----------12--10---------------12-10-8-7------------7-8-8-7-----------------------------|
A|------------------------------------------8------7-8--------8-7--------------------------|
E|--------------------------------------------8--8----------------8------------------------|

            
            
Suggest correction
Creating personal tab
Creating personal tab
You can edit any tab online and save it as your Personal.

You can edit, replace or remove any tab part or add personal notes – all changes will be seen only by you.

Personal tabs can be accessed anytime from any device, even offline.
Learn more »
Give kudos to tab author, rate the tab!
1 2 3 4 5
comments
print report bad tab
guest
Wanna post a correction for this tab? Suggest correction