Oops, an error
Loading. Please wait.

Para Cuando Desatino bass

by Rosendo
33 views 1 this week
no commentswrite comment
1 2 3 4 5
3 more votes to show rating
add to favorites
×
Save as Personal and add changes to this tab that will be seen only by you. Learn more ›
×
You can save this tab as Personal to edit and correct it or add notes. All changes will be seen only by you. Learn more »
launch autoscroll
font size
0
reset
guitar tuner
edit
Autoscroll
slow
fast
+/-
esc
set tempo
stop
RIFF 1  (x2)
D|------------------7-7-7-7----7--7----------------------------------11--
A|-9-9-9-9----9--9-----------7-------7-7-7-7----7--7--9-9-9-9--9-12------
E|----------9---------------------------------7--------------------------

Pardo y mortecino
no te quiero ver nunca más;
culpando de sofocos
al destino que... ¿Dónde está?

RIFF 2  (x2)
D|---------------------------------9-11--------------9--------
A|-9--9----7--9--7-7-7-7---------11------11-11-11--11-11-10-9-
E|-------9---------------7-7-7-7------------------------------

Sigo mi camino o me lo invento,
¿ves?, no me queda más,
para cuando desatino viento fresco
porque no queda más.

RIFF 1  (x2)
Vas a minutar el desafine,
y sé que lo harás,
con eso se disloca el suma y sigue
y no me verás.

RIFF 2  (x2)
Sigo mi camino o me lo invento,
¿ves?, no me queda más,
para cuando desatino viento fresco
porque no queda más.
Sigo mi camino o me lo invento,
¿ves?, no me queda más,
para cuando desatino viento fresco.

RIFF 3
A|-------3-3-X-------4-4-X-------6-6-X-------7-7-X-
E|-4-4-X-------4-4-X-------6-6-X-------7-7-X-------
Suggest correction
Creating personal tab
Creating personal tab
You can edit any tab online and save it as your Personal.

You can edit, replace or remove any tab part or add personal notes – all changes will be seen only by you.

Personal tabs can be accessed anytime from any device, even offline.
Learn more »
Give kudos to tab author, rate the tab!
1 2 3 4 5
comments
print report bad tab
guest
Wanna post a correction for this tab? Suggest correction