Oops, an error
Loading. Please wait.

Siempre Hay Una Historia tab

by Rosendo
22 views 1 this week
no commentswrite comment
1 2 3 4 5
3 more votes to show rating
add to favorites
×
Save as Personal and add changes to this tab that will be seen only by you. Learn more ›
×
You can save this tab as Personal to edit and correct it or add notes. All changes will be seen only by you. Learn more »
launch autoscroll
font size
0
reset
how to read this tab
guitar tuner
edit
Autoscroll
slow
fast
+/-
esc
set tempo
stop
Intro:
------
  C           G     C   F      C     G
|---------0---3--1-0--0-1--3-1-0-1-3-------0-------|
|---1-1-3---------------------------3-1-3---3--0--|
|-0------------------------------------------------|
|--------------------------------------------------|
|--------------------------------------------------|
|--------------------------------------------------|

Estrofa:
--------
G                       D
Sali de la oscuridad ciega tozudez
G                       D
todas las miradas sobre ti
G                      D
Te vas a dejar la piel o te pilla el acomodo

Estribillo:
-----------
E        C        E                  F      G
Mal que bien siempre hay una historia que ofrecer

Cambio:
-------
D                                       C
Tienes mucho rato para atarte los zapatos
D                                             C
dame algun fleco que te estoy haciendo un hueco
D                                        C
todo te da igual porque no eres diferente
D                                               A7
quitate de enfrente que yo estoy tirando al plato.

Solo:
-----
  F           G                 F               G
|-----------------------------------------------------0--1-3--|
|-5h6-5h6-8-6-6-5-5--3-3-3-2-0--------------1---0-1-3---------|
|------------------------------0-2--0-2-0-2-------------------|
|-------------------------------------------------------------|
|-------------------------------------------------------------|
|-------------------------------------------------------------|


Letra:
------
Sali de la oscuridad y en la voz tuve
todas las miradas sobre ti
Te vas a dejar la piel o te pilla el acomodo

Mal que bien siempre hay una historia que ofrecer

Adios lo dijiste ya ,puesto en tu papel
que me queda mas que sonreir
te das media vuelta y ves como has quedado solo

Mal que bien...

Tienes mucho rato para atarte los zapatos
dame algun fleco que te estoy haciendo un hueco
todo te da igual porque no eres diferente
quitate de enfrente que yo estoy tirando al plato

            
            
Suggest correction
Creating personal tab
Creating personal tab
You can edit any tab online and save it as your Personal.

You can edit, replace or remove any tab part or add personal notes – all changes will be seen only by you.

Personal tabs can be accessed anytime from any device, even offline.
Learn more »
Give kudos to tab author, rate the tab!
1 2 3 4 5
comments
print report bad tab
guest
Wanna post a correction for this tab? Suggest correction