Oops, an error
Loading. Please wait.

Sire tab

by Rosendo
64 views 1 this week
no commentswrite comment
1 2 3 4 5
3 more votes to show rating
add to favorites
×
Save as Personal and add changes to this tab that will be seen only by you. Learn more ›
×
You can save this tab as Personal to edit and correct it or add notes. All changes will be seen only by you. Learn more »
launch autoscroll
font size
0
reset
how to read this tab
guitar tuner
edit
Autoscroll
slow
fast
+/-
esc
set tempo
stop
Un saludo para todos los que visitáis y colaboráis con esta magnífica página. 
Si sacáis algo para que suene mejor comentármelo en mi dirección de correo. 
Vamos...

Riff principal: (2 veces en la intro)
E  |------------------------------------||
B  |------------------------------------||
G  |-6-6--4---4---4---4---4---4---------||
D  |-6-6--4---4---4---4---4---4---2-2---||
A  |-4-4--2-p-0-h-2-p-0-h-2-p-0---2-2---||
E  |------------------------------0-0---||


Riff principal varias veces durante la estrofa:
Anda tendiendo alguna trampa
No os acerquéis
Es igual si llueve que si escampa
No le miréis


Riff 2:
E  |----------------------------------------------||
B  |----------------------------------------------||
G  |--------------------------------3--2----------||
D  |--5--5--5--5--5--5--5--5--5-----3--2--5--4----||
A  |--5--5--5--5--5--5--5--5--5-----1--0--5--4----||
E  |--3--3--3--3--3--3--3--3--3-----------3--2----||
No soy al que le manda a la Farmacia
Riff 3:
E  |------------------------------||
B  |------------------------------||
G  |------------------------------||
D  |--5--5--5--5--5--5--5--5--5---||
A  |--5--5--5--5--5--5--5--5--5---||
E  |--3--3--3--3--3--3--3--3--3---||
Le diré que has venido a dar las...


Riff principal varias veces durante la estrofa:
Gracias, no admite suspicacias
Ya lo veréis
Deberéis dejar el juego si amenaza
No lo dudéis


Riff 2
Sólo a mi cuenta historias de la infancia
Riff 3
Tengo su confianza pero...

Riff 4:
E  |--------------------||
B  |--------------------||
G  |--------------------||
D  |-4-4-5-5-5-4-2-2-2--||
A  |-5-5-5-5-5-5-0-0-0--||
E  |--------------------||
No le tires de la manga
Riff 4
Es el jefe de la...


Riff principal:
Banda, botines y bufanda
Un caballero
Hace pasar por taquilla al sí y al pero
Y al distrito entero


Riff 2
Es un ejemplo en tacto y elegancia
Riff 3
Tómale la distancia pero...


Riff 4
No le tires de la manga
Riff 4
Es el jefe de la banda


Riff 5: ESTRIBILLO
E  |--------------------------------------------------------||
B  |--------------------------------------------------------||
G  |---7-7-7-7-7-7-7-7---9-9-9-9-9-9-9-9----7-7-7-7-7-7-7-7-||
D  |---7-7-7-7-7-7-7-7---9-9-9-9-9-9-9-9----7-7-7-7-7-7-7-7-||
A  |---5-5-5-5-5-5-5-5---7-7-7-7-7-7-7-7----5-5-5-5-5-5-5-5-||
E  |--------------------------------------------------------||
      No se apure Sire, mire a donde mire, no seré quien tire.

Riff 6: FINAL DEL ESTRIBILLO
E  |------------------------------||
B  |------------------------------||
G  |-5-s-4-4-4-5-s-4-4-4-5-s-4----||
D  |-5-s-4-4-4-5-s-4-4-4-5-s-4----||
A  |-3-s-2-2-2-3-s-2-2-2-3-s-2----||
E  |------------------------------||

            
            
Suggest correction
Creating personal tab
Creating personal tab
You can edit any tab online and save it as your Personal.

You can edit, replace or remove any tab part or add personal notes – all changes will be seen only by you.

Personal tabs can be accessed anytime from any device, even offline.
Learn more »
Give kudos to tab author, rate the tab!
1 2 3 4 5
comments
print report bad tab
guest
Wanna post a correction for this tab? Suggest correction