Oops, an error
Loading. Please wait.

Vaya Ejemplar De Primavera bass

by Rosendo
71 views 1 this week
no commentswrite comment
1 2 3 4 5
3 more votes to show rating
add to favorites
×
Save as Personal and add changes to this tab that will be seen only by you. Learn more ›
×
You can save this tab as Personal to edit and correct it or add notes. All changes will be seen only by you. Learn more »
launch autoscroll
font size
0
reset
guitar tuner
edit
Autoscroll
slow
fast
+/-
esc
set tempo
stop
G|-------------------------------------------|
D|-------------------------------------------|
A|----4-4-00-0-------------------------------| x11
E|----------------------2-2-0-000------------|

    Menos que tú... es una suerte puñetera.

 ESTRIBILLO:
G|------------------------------------|------|
D|------------------------------------|------|
A|--------------------------0-00-4-44-|x3----| 
E|---------2-2-00-0-------------------|---2--|

   Vienen o van, yo no lo sé, vienen o van.


G|-------------------------------------------|
D|-------------------------------------------|
A|----4-4-00-0-------------------------------| x7
E|----------------------2-2-0-000------------|
  
    No dice adiós... se aturde si se entera.

ESTRIBILLO:
G|---------------------------------|---------|
D|---------------------------------|---------|
A|-----------------------0-00-4-44-|x3-----0-| 
E|---------2-2-00-0----------------|---2-0---|

   Vienen o van, yo no lo sé, vienen o van.

G|-------------------------------------------|
D|-------------------------------------------|
A|----4-4-00-0-------------------------------| x11
E|----------------------2-2-0-000------------|

  Puede bailar... vaya ejemplar de primavera.


ESTRIBILLO:
G|---------------------------------|---------|
D|---------------------------------|---------|
A|-----------------------0-00-4-44-|x3-----0-| 
E|---------2-2-00-0----------------|---2-0---|

   Vienen o van, yo no lo sé, vienen o van.

Final:
G|-------------------------------------------|
D|-----------------------4-------------------|
A|-----------------7---4---4-----------------|     Nº de repeticiones
E|-------------------7-----------------------| convenientes hasta el final.


BUENO, CREO KE CON ESTO VALE PARA TOCAR ESTA PEDAZO DE 
CANCIÓN DEL MAESTRO ROSENDO. COMO VES ES MUY SENCILLITA 
Y SI NO TE ACLARAS CON ALGO O SIMPLEMENTE HAS SACADO ALGO 
KE SUENE MEJOR MANDAME UN E-MAIL¡¡¡¡

VENGA NO ME ENRROLLO MÁS Y A DISFRUTARLAAAAA¡¡¡¡¡¡

            
            
Suggest correction
Creating personal tab
Creating personal tab
You can edit any tab online and save it as your Personal.

You can edit, replace or remove any tab part or add personal notes – all changes will be seen only by you.

Personal tabs can be accessed anytime from any device, even offline.
Learn more »
Give kudos to tab author, rate the tab!
1 2 3 4 5
comments
print report bad tab
guest
Wanna post a correction for this tab? Suggest correction