Oops, an error
Loading. Please wait.

Y Dale tab

by Rosendo
220 views 1 this week
no commentswrite comment
1 2 3 4 5
3 more votes to show rating
add to favorites
×
Save as Personal and add changes to this tab that will be seen only by you. Learn more ›
×
You can save this tab as Personal to edit and correct it or add notes. All changes will be seen only by you. Learn more »
launch autoscroll
font size
0
reset
how to read this tab
guitar tuner
backing track
0:00
0:00
edit
Autoscroll
slow
fast
+/-
esc
set tempo
stop
INTRO
--2-2-2-----------------2-2-2--------
--2-2-2-----------------2-2-2--------
--3-3-3-4-4-6-6-6-4-4-4-3-3-3--------
--4-4-4-4-4-6-6-6-4-4-4-4-4-4--------    X 4
--4-4-4-2-2-4-4-4-2-2-2-4-4-4--------
--2-2-2-----------------2-2-2--------

---2-2-2-------------------------------------------------------2-2-2-
---2-2-2-------------------------------------------------------2-2-2-
---3-3-3----------------4-4----------6-6-6------------4-4-4----3-3-3-
---4-4-4----------------4-4----------6-6-6------------4-4-4----4-4-4-
---4-4-4----------------2-2----------4-4-4------------2-2-2----4-4-4-
---2-2-2-------------------------------------------------------2-2-2-
No hay razón por la que siendo un bribón tengas que hacer de payaso

SI-DO#-SI

---2-2-2-----------------------------------------------2-2-2---
---2-2-2-----------------------------------------------2-2-2---
---3-3-3------------4-4------6-6-6------------4-4-4----3-3-3---
---4-4-4------------4-4------6-6-6------------4-4-4----4-4-4---
---4-4-4------------2-2------4-4-4------------2-2-2----4-4-4---
---2-2-2-----------------------------------------------2-2-2---
No hay sitio que controles mejor que lo que abarcan tus brazos

SI-DO#-SI

---2-2-2--------------------------------------------------2-2-2-
---2-2-2--------------------------------------------------2-2-2-
---3-3-3----------------4-4--------6-6-6-------4-4-4------3-3-3-
---4-4-4----------------4-4--------6-6-6-------4-4-4------4-4-4-
---4-4-4----------------2-2--------4-4-4-------2-2-2------4-4-4-
---2-2-2--------------------------------------------------2-2-2-
No hay porqué sacar del tiesto los pies para montar el sombrajo

SI-DO#-SI

---2-2-2------------------------------------------2-2-2--------
---2-2-2------------------------------------------2-2-2--------
---3-3-3--------4-4-------6-6-6----------4-4-4----3-3-3--------
---4-4-4--------4-4-------6-6-6----------4-4-4----4-4-4--------
---4-4-4--------2-2-------4-4-4----------2-2-2----4-4-4--------
---2-2-2------------------------------------------2-2-2--------
No tiempo de contar hasta diez cuando se viene de paso

SI-DO#-SI

----------------------------------------------------------------------
----------------------------------------------------------------------
-2-2-2---2-4--4-6-7-7-7-7-6-4---4-4----2-2-2---2-4--4-6-7-7-7-7-6-4---
-------4-------------------------------------4------------------------
----------------------------------------------------------------------
----------------------------------------------------------------------

No hay razón para cambiar de opinión cuando se rompe en pedazos
No hay sitio a la reconciliación en el mejor de los casos
No hay porque hacer un acto de fe cuando se tiene un fracaso
No hay tiempo que se deba perder justificando un retraso

-----------------------------------------------------------------------
-----------------------------------------------------------------------
-2-2-2---2-4--4-6-7-7-7-7-6-4---4-4----2-2-2---2-4--4-6-7-7-7-7-6-4----
-------4-------------------------------------4-------------------------
-----------------------------------------------------------------------
-----------------------------------------------------------------------

-----------------------4-4--4-4--4--4--------------------------------
-----------------------4-4--4-4--4--4--------------------------------
-----------------------5-5--5-5--5--5----4-4--4-4--------------------
------6----6-6---6-----6-6--6-6--6--6----2-2--2-2--4-4--4-4----------
-4-4--4----4-4---4-----6-6--6-6--6--6--------------2-2--2-2----------
-2-2-------------------4-4--4-4--4--4--------------------------------
Ponte pues en marcha y dale color que se oxida.

-----------------------4-4--4-4--4--4--------------------------------
-----------------------4-4--4-4--4--4--------------------------------
-----------------------5-5--5-5--5--5----4-4--4-4--------------------
------6----6-6---6-----6-6--6-6--6--6----2-2--2-2--4-4--4-4----------
-4-4--4----4-4---4-----6-6--6-6--6--6--------------2-2--2-2----------
-2-2-------------------4-4--4-4--4--4--------------------------------
Ponte pues en marcha y dale calor que se enfría.

SOLO DE GUITARRA-ACOMPAÑAMIENTO:

FA#-SI-DO#-SI-x 8 veces
LA-SI-DO#-RE-DO#-SI x 2 veces

Ponte pues en marcha y dale color que se oxida.
Ponte pues en marcha y dale calor que se enfría.
Ponte pues en marcha y dale color que se oxida.
Ponte pues en marcha y dale calor que se enfría.

SOLO DE GUITARRA HASTA EL FINAL;

FA#-DO#-SOL#-MI-SI


Partitura por: Rulos

            
            
Suggest correction
Creating personal tab
Creating personal tab
You can edit any tab online and save it as your Personal.

You can edit, replace or remove any tab part or add personal notes – all changes will be seen only by you.

Personal tabs can be accessed anytime from any device, even offline.
Learn more »
Give kudos to tab author, rate the tab!
1 2 3 4 5
comments
print report bad tab
guest
Wanna post a correction for this tab? Suggest correction