Oops, an error
Loading. Please wait.

Renew tab

by Rosetta
625 views 3 this week
1 commentread comment
1 2 3 4 5
3 more votes to show rating
add to favorites
×
Save as Personal and add changes to this tab that will be seen only by you. Learn more ›
×
You can save this tab as Personal to edit and correct it or add notes. All changes will be seen only by you. Learn more »
launch autoscroll
font size
0
reset
how to read this tab
guitar tuner
edit
Autoscroll
slow
fast
+/-
esc
set tempo
stop
-------------------------------------------------------------------------------
                             Renew - Rosetta
-------------------------------------------------------------------------------
Tabbed by: Sludgehead
E-mail:

Tuning: A# (A# F A# D# G C)

This is a guitar tab for Rosetta's song, Renew. It is pretty accurate, however some parts may be off, 
and some others are just sort of improvised using the playing pattern of the given part, so its not 
100% accurate.

First part, the intro. You want your Reverb all the way up, and your Delay pretty high.
Strum lightly on this part.

|---17-17p15-----17-17p15-----17-17p15-------17-17p15-----------------------|
|---------------------------------------------------------------------------|
|---------------------------------------------------------------------------|
|---------------------------------------------------------------------------|
|---------------------------------------------------------------------------|
|---------------------------------------------------------------------------|
 Once more, strum lightly here. Repeat this 3 times, until...
|--20-20-19-17-17-15-15s13s12-12s13s15s17--17-------------------------------|
|---------------------------------------------------------------------------|
|---------------------------------------------------------------------------|
|---------------------------------------------------------------------------|
|---------------------------------------------------------------------------|
|---------------------------------------------------------------------------|
 Same Reverb and Delay settings, but add gain where (gain) is written.
                               (Gain)
|---20-20-19-17-17-15-15s13s12--12--13--15--17-----202020-191919-171717--12-13--15--13--17----------|
|---------------------------------------------------------------------------------------------------|
|---------------------------------------------------------------------------------------------------|
|---------------------------------------------------------------------------------------------------|
|---------------------------------------------------------------------------------------------------|
|---------------------------------------------------------------------------------------------------|
                                            (And from here, repeat starting from where the gain is)
|---191919--202020--171717--131313--121212----------------------------------|
|---------------------------------------------------------------------------|
|---------------------------------------------------------------------------|
|---------------------------------------------------------------------------|
|---------------------------------------------------------------------------|
|---------------------------------------------------------------------------|
Now this is the introduction to the solo- I will break this into two guitar parts.
  
Guitar 1:
 (Ring these notes) No gain.
|--12-------------10-15--------17-19------20p17------12-13--------15-17-----10-12-------------------|
|---------------------------------------------------------------------------------------------------|
|---------------------------------------------------------------------------------------------------|
|---------------------------------------------------------------------------------------------------|
|---------------------------------------------------------------------------------------------------|
|---------------------------------------------------------------------------------------------------|
Guitar 2: No gain.
 (Ring these notes a little more, as there are a lot less playing. Listen to match them up)
|--------------------------------------------------------------------------------|
|--13-----------12------------8-10-------13-17------13-12---------8-10-----------|
|--------------------------------------------------------------------------------|
|--------------------------------------------------------------------------------|
|--------------------------------------------------------------------------------|
|--------------------------------------------------------------------------------|
Solo: (For this, repeat the Guitar 2 throughout)
Guitar 1: This is all tapped. gain is optional. This is the part that I improvised. Basically,
keep up this pattern going back and forth, every now and then jumping to the high notes at random.
|-----121012--151715--19201920-17191719--13121312-10121012--17151715-20192019-|
|--10-------------------------------------------------------------------------|
|-----------------------------------------------------------------------------|
|-----------------------------------------------------------------------------|
|-----------------------------------------------------------------------------|
|-----------------------------------------------------------------------------|
Part after the solo. Again, take the gain back up.
Guitar 1: Again, I repeated this and improvised a bit                   (Ring this note)
|--12-12-12-12--10-10-10-10-13-13-13--12-12-12-12--8-8-8-8-7--15-17-1715-17------------------|
|--------------------------------------------------------------------------------------------|
|--------------------------------------------------------------------------------------------|
|--------------------------------------------------------------------------------------------|
|--------------------------------------------------------------------------------------------|
|--------------------------------------------------------------------------------------------|
Guitar 2: You want these notes to ring a lot, as well. You can even trill them these notes.
Once more, this was improvised, and I just played these notes over and over and switched them around.
|--------------------------------------------------------------------------------------------|
|--10-10-10---13-13-13---12-12-12------------------------------------------------------------|
|--------------------------------------------------------------------------------------------|
|--------------------------------------------------------------------------------------------|
|--------------------------------------------------------------------------------------------|
|--------------------------------------------------------------------------------------------|

Ending riff. 

Times 4      Times 2      Times 2     Repeat this for the rest of the song.
|------------|------------|-----------|
|------------|------------|-----------|
|------------|------------|-----------|
|------------|------------|-----------|
|-7--7--7-7--|-3--3--3-3--|-5--5--5-5-|
|-7--7--7-7--|-3--3--3-3--|-5--5--5-5-|
|-7--7--7-7--|-3--3--3-3--|-5--5--5-5-|


************************************

| /   slide up
| \   slide down
| h   hammer-on
| p   pull-off
| ~   vibrato
| +   harmonic
| x   Mute note
| b   Bend
| pb  Pre-bend
| br  Bend release
| pbr Pre-bend release
| brb Bend release bend

************************************
Suggest correction
Creating personal tab
Creating personal tab
You can edit any tab online and save it as your Personal.

You can edit, replace or remove any tab part or add personal notes – all changes will be seen only by you.

Personal tabs can be accessed anytime from any device, even offline.
Learn more »
Give kudos to tab author, rate the tab!
1 2 3 4 5
comments
print report bad tab
1 comment total.
0 reply
Sludgehead 169 Sep 22, 2014 05:43 AM, edited at 09:46 am

I may go back to edit this, as I have made more corrections already. Hopefully someone finds this useful!

guest
You may want to rate the tab now too:
select rating
Wanna post a correction for this tab? Suggest correction