Oops, an error
Loading. Please wait.

Angel Baby tab

118,764 views 201 this week
11 commentsread comments
1 2 3 4 5
x 24
add to favorites
×
Save as Personal and add changes to this tab that will be seen only by you. Learn more ›
×
You can save this tab as Personal to edit and correct it or add notes. All changes will be seen only by you. Learn more »
launch autoscroll
font size
0
reset
how to read this tab
guitar tuner
edit
Autoscroll
slow
fast
+/-
esc
set tempo
stop
   E A D G B e
C  0 3 2 0 1 0
Am X X 2 2 1 0
F  0 3 3 2 1 1
G  3 2 0 0 0 3

e|----------9--------------8-----------------11--8--------------------------|
B|--------9--------------8----------------8---------------------------------|
G|-----10--------------9---------------9------------9-----------------------|
D|--11--------------10-------------10---------------------------------------|
A|--------------------------------------------------------------------------|
E|--------------------------------------------------------------------------|

e|-----------7--5-----------------13--10------------------------------------|
B|--------5--------5----------10---------------------8--8-------------------|
G|-----5------------------10--------------10------7--------7----------------|
D|--7-----------------12--------------------------------------9-------------|
A|--------------------------------------------10----------------------------|
E|--------------------------------------------------------------------------|

e|-----------3-----------------5-----------------5-----------------3--------|
B|--------5-----5-----------5-----5-----------6-----6-----------6-----6-----|
G|-----5-----------5-----5-----------5-----5-----------5-----4-----------4--|
D|--------------------------------------------------------5-----------------|
A|--3-----------------------------------8-----------------------------------|
E|--------------------5-----------------------------------------------------|


[Verse 1]

C               Am    F               G
It's just like heaven being here with you
C               Am    F              G
You're like an angel, too good to be true
C         Am     F           G
But after all, I love you, I do
C     Am    F        G
Angel Baby, my Angel Baby
C            Am      F                G
When you are near me my heart skips a beat
C         Am       F             G
I can hardly stand on my own two feet


[Chorus]

C          Am          F           G
Because I love you, I love you, I do
C     Am    F        G
Angel Baby, my Angel Baby
C          Am        F         G
Ooh ooh I love you, ooh ooh I do
C             Am      F       G
No one could love you like I do
C                    Am  F        G
ooh ooh ooh ooh ooh ooh, ooh ooh ooh


[Verse 2]

C             Am      F        G
Please never leave me blue and alone
C           Am        F                    G
If you ever go, I'm sure you'll come back  home
C         Am          F           G
Because I love you, I love you, I do
C     Am    F          G
Angel Baby, my Angel Baby
C              Am     F             G
It's just like heaven being with you dear
C             Am    F                G
I could never stay, away without you near


[Chorus]

C         Am          F          G
Because I love you, I love you I do
C     Am     F          G
Angel Baby, my Angel Baby
C         Am        F         G
Ooh ooh I love you, ooh ooh I do
C            Am       F      G
No one could love you like I do
C                    Am  F         G
ooh ooh ooh ooh ooh ooh, ooh ooh ooh
C        Am   F        G
ooh ooh ooh, ooh ooh ooh

            
            
Suggest correction
Creating personal tab
Creating personal tab
You can edit any tab online and save it as your Personal.

You can edit, replace or remove any tab part or add personal notes – all changes will be seen only by you.

Personal tabs can be accessed anytime from any device, even offline.
Learn more »
comments
print report bad tab
11 comments total. Showing first comments.
+1 reply
BlCkBrKnHaRt 10 Sep 03, 2005 08:00 PM

good song....needed someone like you

+3 reply
Eastlaguitarist 10 Nov 13, 2007 01:37 PM

FIRME!!!!!

+4 reply
its monte kuz 10 Jun 06, 2011 06:27 PM

great job Im gonna sing this song to my girlfriend! I'm 18 but oldies are the shit!!

guest
You may want to rate the tab now too:
select rating
Wanna post a correction for this tab? Suggest correction