Oops, an error
Loading. Please wait.

Amor Prohibido tab

version 1
version 1

Whole song

41 views 1 this week
no commentswrite comment
1 2 3 4 5
3 more votes to show rating
add to favorites
×
Save as Personal and add changes to this tab that will be seen only by you. Learn more ›
×
You can save this tab as Personal to edit and correct it or add notes. All changes will be seen only by you. Learn more »
launch autoscroll
font size
0
reset
how to read this tab
guitar tuner
edit
Autoscroll
slow
fast
+/-
esc
set tempo
stop
Una canción a ritmo de cumbia peruana, buenisima.
A pelo para dedicar a esa persona que quieres pero que no puede corresponderte.

G : 355433
C : 335553
D : 557775
Em: 022000

INTRO

(Aquí suena el bajo)

E /-----------------------------------------/
B |-----------------------------------------------|
G |-----------------------------------------------|
D |-----------------------------------------------|
A |-----------------------------------------------|
E /--12---12-10-08---08-10-12---12-10-08----/


e /--7---------7-5---5-7-8--8-7-------------/
b |----8-5---5-8---------------------8-5----------|
g |-----------------------------------------------| (X2)
d |-----------------------------------------------|
a |-----------------------------------------------|
e /-----------------------------------------/

e /-------------5---------------------------/
b |--5-7-8--8-7-5---7-------5--5---7-5------------|
g |---------------------5-7------7----------------| (X2)
d |-----------------------------------------------|
a |-----------------------------------------------|
e /-----------------------------------------/


         G          D
Nuestro amor es prohibido
        C           Em
No me busques por favor
         G            D
Nuestro amor no puede ser
        C      D   Em
No me tientes corazón

    G          D
Cuando te conocí
      Em
Ya tenías otro amor
G            D
Tarde te conocí
      Em
Ahora yo que voy a hacer

        C
No me quiero interponer
     D
Pero ya me enamore
      G       D       Em
Dios mio que voy a hacer
          G    D     Em
Si ya es parte de mí ser

CORO

G           D          G           D
Quiero un poquito un poquito de tu amor
G          D           C       D   Em
Dame un poquito no me tientes corazón
G           D          G           D
Quiero un poquito un poquito de tu amor
G          D           C       D   Em
Dame un poquito no me tientes corazón

          D      G                          C     Em
e |--7----5--------------/           /----------------------/
b |----8----7----5-5-----|           |--5-8-7-5---5-5-------|
g |------------7---------| (x2)      |----------7-----------| (x2)
d |----------------------|           |----------------------|
a |----------------------|           |----------------------|
e /-------------------/         /-------------------/

----------------------------------
Un aporte desde la Universidad Nacional de Ingeniería
Suggest correction
Creating personal tab
Creating personal tab
You can edit any tab online and save it as your Personal.

You can edit, replace or remove any tab part or add personal notes – all changes will be seen only by you.

Personal tabs can be accessed anytime from any device, even offline.
Learn more »
Give kudos to tab author, rate the tab!
1 2 3 4 5
comments
print report bad tab
guest
Wanna post a correction for this tab? Suggest correction