Oops, an error
Loading. Please wait.

Helios Hyperion Tab

version 1
version 1

Whole song

Interactive

1,040 views 1 this week
no commentswrite comment
1 2 3 4 5
please rate
add to favorites
launch autoscroll
font size
0
reset
how to read this tab
guitar tuner
Autoscroll
slow
fast
+/-
esc
set tempo
stop
Help us to improve Ultimate-Guitar.com Take our survey!
×
Contributor
My tab for Helios Hyperion. This should be pretty close. If it's not,
please let me know. Long live Rotting Christ.

Each " = four picks.

Intro (Guitar 1)
-------------------------------------------------------------|
-------------------------------------------------------------|
--4"----4"--7"4"--4"----4"----2"--4"----4"--7"4"--4"----4"---|
----4"----4"--------4"----4"--------4"----4"--------4"----4--|
2"----2"--------2"----2"----2"--2"----2"--------2"----2"-----|
-------------------------------------------------------------|

Intro (Guitar 2)
------------------------------------------------------------|
0"12"0""12"0""10"-0"12"0""12"0"-----------------------------|
------------------------------------------------------------|
------------------------------------------------------------|
------------------------------------------------------------|
------------------------------------------------------------|

Preverse (Guitar 1)

------------------------------------------------------------|
----------------------------7"------------------------------|
-----------9"-----------------4"----------------------------|
4"5"4""5"4"--9"--4"5"4""5"4"--------------------------------|
------------------------------------------------------------|
------------------------------------------------------------|

First solo (Guitar 1)
Start with a good palm mute and gradually release it
\/
----------------------------------------------------------------------------------------------|
----------------------------------------------------------------------------------------------|
----------------------------------------------------------------------------------------------|
--0"2"4"5"7"9"11"12""14"12h14h16--16h17p16h17p16-14-16-14h16p14h16p14-12-14--12g14p12p11h12~--|
4"--------------------------------------------------------------------------------------------|
----------------------------------------------------------------------------------------------|

All palm muted until the note after all the ones squished together
--------------------------------------------------------------------|
--------------------------------------------------------------------|
79975775----------------------4~-/5-/7-/9-/11-/12-/14-/16-/16-------|
--------910109799779977997------------------------------------------|
------------------------------------------------------------14vvv---|
--------------------------------------------------------------------|

Verse:
(Guitar 1)
Only do the 14 the first time you play the verse.
----------------------------------------------------14-------|vvvvvv
-------------------------------------------------------------|
-------------------------------------------------------------|
5"4"9"4"5"4"9"4"5"4"7"4"5"4"5"2"-----------------------------|
-------------------------------------------------------------|
-------------------------------------------------------------|

(Guitar 2)
------------------------------------------------------------|
8"7"12"7"8"7"12"7"8"7"10"7"8"7"8"5"-------------------------|
------------------------------------------------------------|
------------------------------------------------------------|
------------------------------------------------------------|
------------------------------------------------------------|

(Guitar 3)
I don't know how to do harmonics, so I'm just guessing that it's on the 3rd
fret.
------------------------------------------------------------|
------------------------------------------------------------|
------------------------------------------------------------|
4-----4-----4-----4-----5-----5-----2-----------------------|
4-----4-----4-----4-----5-----5-----2-----------------------|
2-222-2-222-2-222-2-222-3-333-3-333-0-000-3nh---------------|
  ...   ...   ...   ...   ...   ...   ...

Long bridge/solo background (Guitar 3)

I think this might be off but I suck at tabbing really low stuff. I'll try
to get it later and put it in, but right now this sounds kind of close.
-----------------------------------------------------------------------|
-----------------------------------------------------------------------|
-----------------------------------------------------------------------|
4---5-4---------------------------5-------4------4-------------------5-|
4---5-4--a-bunch-of-times,-then---5-------4-2s11-4-four-times-then---5-|
2---3-2---------------------------3-0000--2-2s11-2-----------------2-3-|

Guitar solo
I will try to get this tabbed later. It's extremely confusing and
tricky. If you are really itching to play this live, I would advise you
to just improvise some shredding. They use all these harmonic effects I
dunno how to use, and it sounds like one of Buckethead's tapping solos
turned really dark. Sweet solo, but right now, it's beyond my ability to tab.
I have the intro of it down, but that's all for now.

7vvvv---///7vvvvvv-5-5--8vv-5-5-5-8vv-5-7-7vvvv-------------|
------------------------------------------------------------|
------------------------------------------------------------|
------------------------------------------------------------|
------------------------------------------------------------|
------------------------------------------------------------|
Suggest correction What's this?
You can suggest a correction to this tab. Community and Mods will review your correction and vote to approve or reject it.
comments
We did not receive enough feedback on this tab! Please rate:
print report bad tab
1 2 3 4 5
I want to post or [tab]
guest
You may want to rate the tab now too:
select rating
Please do not post tabs as comments. Select "correction" instead!