Oops, an error
Loading. Please wait.

Heart Of Mine Tab

168 views 1 this week
no commentswrite comment
1 2 3 4 5
please rate
add to favorites
launch autoscroll
font size
0
reset
how to read this tab
guitar tuner
Autoscroll
slow
fast
+/-
esc
set tempo
stop
Help us to improve Ultimate-Guitar.com Take our survey!
×
Contributor
Difficulty
Beanboy 325
intermediate
-------------------------------------------------------------------------------
                             HEART OF MINE - Rox Diamond
-------------------------------------------------------------------------------

Band - http://www.roxdiamond.com/
Album - http://www.heavyharmonies.com/cgi-bin/glamcd.cgi?BandNum=397&CDName=Rox+Diamond
Video - http://www.youtube.com/watch?v=g-xZoHkzff0

Tabbed by: Beanboy

Tuning:Standard



Intro (Main Riff)

e|---------------------------------------------------------------------------|
B|---------------------------------------------------------------------------|
G|---------------------------------------------------------------------------|
D|------------------7-9/10--10---10-12--x2-----------------------------------|
A|----------------0-5-7/8---8----8--10---------------------------------------|
E|-5\-0-3-5-0h3h5------------------------------------------------------------|


Intro solo

e|---------------------------------------------------------------------------|
B|--13-12----13-12------13-12-----/15-13-12h13p12-10-------------------------|
G|--------12-------12---------12---------------------------------------------|
D|---------------------------------------------------------------------------|
A|---------------------------------------------------------------------------|
E|---------------------------------------------------------------------------|

e|--20-19----20-19------20-19-----22b24br22----------------------------------|
B|--------20-------20---------20-------------22------------------------------|
G|---------------------------------------------------------------------------|
D|---------------------------------------------------------------------------|
A|---------------------------------------------------------------------------|
E|---------------------------------------------------------------------------|


Verse

e|---------------------------------------------------------------------------|
B|---------------------------------------------------------------------------|
G|-2--2-4-9-2--2--5-4-7-5----------------------------------------------------|
D|-2--2-5-7-2--2--5-5-7-5----------------------------------------------------|
A|-0--0-0-0-0--0--0-0-0-0----------------------------------------------------|
E|---------------------------------------------------------------------------|


Pre-Chorus

e|---------------------------------------------------------------------------|
B|---------------------------------------------------------------------------|
G|------5-4-7-5-5-4-9-7---7--------9-7---7-5---------------------------------|
D|-3-3--5-5-7-5-5-5-7-7-3-7--2-----9-7-7-7-5-7-------------------------------|
A|-3-3--0-0-0-0-0-0-0-0-3-5--2---------7-----7-------------------------------|
E|-1-1------------------1----0-----------------------------------------------|


Chorus

e|------------------------------------------|--------------------------------|
B|------------------------------------------|--------------------------------|
G|------------------------------------------|--7--9--14\---------------------|
D|------------------7-9/10--10---10-12--x2--|--7--9--14\---------------------|
A|----------------0-5-7/8---8----8--10------|--5--7--12\---------------------|
E|-5\-0-3-5-0h3h5---------------------------|--------------------------------|


Verse
Pre Chorus
Chorus
Chorus


Break

e|-----------------------------|----------------|----first---------|--second--|
B|-----------------------------|----------------|------------------|----------|
G|--2---2------2--5-4-7-5------|--4-4-2--4-4-2--|-5-4-7-5--5-4-9-7-|--9-------|
D|--2---2------2--5-5-7-5--x2--|--5-5-2--5-5-2--|-5-5-7-5--5-5-7-7-|--9-------|
A|--0---0--0--0-0-0-0------|--0-0-0--0-0-0--|-0-0-0-0--0-0-0-0-|--7-------|
E|-----------------------------|----------------|------------------|----------|

e|----------------------------------------------------------------------------|
B|----------------------------------------------------------------------------|
G|--9-7---7-5-----------------------------------------------------------------|
D|--9-7-7-7-5-7--x2-----------------------------------------------------------|
A|------7-----7---------------------------------------------------------------|
E|----------------------------------------------------------------------------|


Chorus till end




************************************

| /   slide up
| \   slide down
| h   hammer-on
| p   pull-off
| ~   vibrato
| +   harmonic
| x   Mute note
| b   Bend
| pb  Pre-bend
| br  Bend release
| pbr Pre-bend release
| brb Bend release bend
| pm  Palm mute

************************************
comments
We did not receive enough feedback on this tab! Please rate:
print report bad tab
1 2 3 4 5
I want to post or [tab]
guest
You may want to rate the tab now too:
select rating
Please do not post tabs as comments. Select "correction" instead!