Oops, an error
Loading. Please wait.

Fingertips tab

version 1
version 1

Whole song

Interactive

by Roxette
1,318 views 1 this week
1 commentread comment
1 2 3 4 5
2 more votes to show rating
add to favorites
×
Save as Personal and add changes to this tab that will be seen only by you. Learn more ›
×
You can save this tab as Personal to edit and correct it or add notes. All changes will be seen only by you. Learn more »
launch autoscroll
font size
0
reset
how to read this tab
guitar tuner
edit
Autoscroll
slow
fast
+/-
esc
set tempo
stop
Difficulty
intermediate
I have seen the chords for this song but have not seen the solo so here it is. I have 
included some of the verse licks and riffs.

 FINGERTIPS SOLO
e|-----------------------------------------------------------------|
B|-----------------------------------------------------------------|
G|-----------------------------------------------------------------|
D|-----------8--10-8-----12--12-12-12--11-(10-9?)-12--14--16---14--|
A|-----------------------------------------------------------------|
E|-----------------------------------------------------------------|

e|-----------------------------------------------------------------|
B|-----------------------------------------------------------------|
G|--------12-12--11--9-9-9—9h11p9--12-12-12-12-11--9--12-14-16-19--|
D|-----------------------------------------------------------------|
A|-----------------------------------------------------------------|
E|-----------------------------------------------------------------|

e|-----------------------------------------------------------------------------------|
B|-----------------------------------------------------------------------------------|
G|-----------------------------------------------------------------------------------|
D|---------21--17--21----------------------------------------------------------------|
A|-----------------------------------------------------------------------------------|
E|-----------------------------------------------------------------------------------|


e|---------------------------------------------------------------------------|
B|---------------------------------------------------------------------------|
G|---------------------------------------------------------------------------|
D|---------------------------------------------------------------------------|
A|---------------------------------------------------------------------------|
E|---------------------------------------------------------------------------|


Verse  lick
e|---------------------------------------------------------------------------------------|
B|---------------------------------------------------------------------------------------|
G|---------------------------------------------------------------------------------------|
D|----------12--14--12-9/13--------------------------------------------------------------|
A|---------------------------------------------------------------------------------------|
E|---------------------------------------------------------------------------------------|
                            D          a         e
e|-------------------------2---2----2--2-------------------------------------------------|
B|-------------------------3---3----2--2-------------------------------------------------|
G|--------9--12—14b--------2---2----2--2--------1--1-------------------------------------|
D|----------------------------------------------2--2-------------------------------------|
A|----------------------------------------------2--2-------------------------------------|
E|---------------------------------------------------------------------------------------|

                                        D       a     e
e|----------------------------------------------------------|
B|-------------------------------------2-2------------------|    half bend
G|---------11--11--11-11---10--9--7----3-3----2-2------1-1--|
D|-------------------------------------2-2----2-2------2-2--|
A|--------------------------------------------2-2------2-2--|
E|----------------------------------------------------------|

e|---------------------------------------------2---2------------------|
B|---------------------------------------------3---3-----2---2--------|     half bend
G|--------11--11--11--11-10--9--7---12b--------2---2-----2---2--------|
D|-------------------------------------------------------2---2--1--1--|
A|--------------------------------------------------------------2--2--|
E|--------------------------------------------------------------2--2--|

e|---------------------------------------|
B|---------------------------------------|      half bend
G|-----------11--11--11---11---10--9--7--|
D|---------------------------------------|
A|---------------------------------------|
E|---------------------------------------|

            
            
Suggest correction
Creating personal tab
Creating personal tab
You can edit any tab online and save it as your Personal.

You can edit, replace or remove any tab part or add personal notes – all changes will be seen only by you.

Personal tabs can be accessed anytime from any device, even offline.
Learn more »
Give kudos to tab author, rate the tab!
1 2 3 4 5
comments
print report bad tab
1 comment total.
0 reply
pizzamampff 436 Oct 16, 2009 08:53 AM

also wrong, confusing

guest
Wanna post a correction for this tab? Suggest correction