Oops, an error
Loading. Please wait.

Joyride Tab

version 1
version 1

Whole song

Interactive

by Roxette
23,000 views 36 this week
no commentswrite comment
1 2 3 4 5
x 4
add to favorites
×
Save as Personal and add changes to this tab that will be seen only by you. Learn more ›
×
You can save this tab as Personal to edit and correct it or add notes. All changes will be seen only by you. Learn more »
save as personal
new!
launch autoscroll
font size
0
reset
how to read this tab
guitar tuner
Autoscroll
slow
fast
+/-
esc
set tempo
stop
[Verse]
(The riff going into the first verse is)
   +   +   +   +     +  +  +  +
e|-----------------|-------------|
B|-----------------|-------------|
G|----/6--/6---4p2-|-------------|
D|-----------------|-2-----------|
A|-0---------------|-0-----------|
E|-----------------|-------------|

(Play the following over the verse)
   +   +   +   +     +   +   +       +
e|-----------------|-------------------------|
B|-----------2-3-2-|-------------------------|
G|-----------2-2-2-|-------------------------|  (x2)
D|-----------2-2-2-|-------------------------|
A|-----------------|-------------0-------0---|
E|-----------------|---------3h5---0-3b------|

   + + + +   + + + +   +       +       +   +     +       +       +   +
e|---------|---------|-------------------------|-------------------------|
B|-3-------|---------|-------------------2-3-2-|-------------------3-2---|
G|-2-------|-4-------|-----------------x-2-2-2-|-----------------x-2-2---|
D|-0-------|-4-------|-------------------2-2-2-|-------------------2-2---|
A|---------|-2-------|-----0-------0-----------|-------------0-----------|
E|---------|---------|-3h5---0-3b--------------|-3h5---0-3b--------------|

   +    +   +   +     + + + +   +     +       +       +
e|------------------|---------|-------3---------------3---|
B|---10-9-----------|---------|-------2---------------2---|
G|-9------9-9-------|-7-------|-------2---------------2---|
D|-9--------9-------|-7-------|---------------------------|
A|-7--------7-------|-5-------|-0--0------0-0-0-0-0-----0-|
E|------------------|---------|---------------------------|

   +     +       +       +     +    +   +   +     + + + +   + + + +
e|-------3---------------3---|------------------|---------|---------|
B|-------2---------------2---|---10-9-----------|---------|---------|
G|-------2---------------2---|-9------9-9-------|-7-------|---------|
D|---------------------------|-9--------9-------|-7-------|-------x\|
A|-0--0------0-0-0-0-0-----0-|-7--------7-------|-5-------|-------x\|
E|---------------------------|------------------|---------|-------x\|

[Chorus]
   + + + +   + + + +   +   +   +   +     + + + +   + + + +   + + + +
e|---------|---------|-----------------|---------|---------|---------|
B|---------|---------|-----------------|---------|---------|---------|
G|---------|-2-------|----/6--/6---4p2-|-2-------|---------|---------|
D|-7---5---|-0--2----|-----------------|-0-------|-2-------|---------|
A|-7---5---|----0----|-----------------|---------|-0-------|---------|
E|-5---3---|---------|-----------------|---------|---------|---------|

   +        +
e|-10p9-------------|
B|--------10--------|
G|----------11--12--|
D|------------------|
A|------------------|
E|------------------|

[Solo]
   +       +       +   +     +       +       +   +         + + + +   + + + +
e|-------------------------|-----------------------------|---------|---------|
B|-3p2---------------------|-3p2-------------------------|---------|---------|
G|-------2-----------------|-------2---------------------|---------|---------|
D|---------4---5-----------|---------4-5-----------5-5h7-|---------|---------|
A|-------------------------|-----------------------------|-0-------|---------|
E|-------------------------|-----------------------------|---------|---------|

   +       +       +   +     +       +       +   +
e|-------------------------|-----------------------------|
B|-3p2---------------------|-3p2-------------------------|
G|-------2-----------------|-------2---------------------|
D|---------4---5-----------|---------4-5-----------5-5h7-|
A|-------------------------|-----------------------------|
E|-------------------------|-----------------------------|

   +   +   +   +     +   +   +   +     +   +   +   +     +   +   +   +
e|-----------------|-----------------|-----------------|-----------------|
B|-----------------|-----------------|-----------------|-----------------|
G|-----------------|-----------------|-----------------|-----------------|
D|-----------------|-----------------|-----------------|-----------------|
A|-0---3p0-3p0---0-|-3p0-2-0-------0-|-0---3p0-3p0-----|---0---0---3-0---|
E|-----------------|-----------0-3---|---------------0-|-3---------------|

   + + + +   + + + +   +    +    +     +      +    +    +     +
e|---------|---------|----------------------|---------------------|
B|---------|-3-------|/10---8---8---8-------|---------------------|
G|---------|-2-------|-----------9-----7----|---------------------|
D|-5-------|-0-------|------------------10--|-7----5---5---5------|
A|-5-------|---------|----------------------|-----------7-----5---|
E|-3-------|---------|----------------------|------------------8--|

This next bit is played under "I'll take you on a skyride"

   +   +   +   +     +   +   +   +     +   +   +   +     +   +   +   +     +
e|-----------------|-----------------|-----------------|-----------------|-----|
B|-----------------|-----------------|-----------------|-----------------|-----|
G|-----------------|-----------------|-----------------|-----------------|-----|
D|-7-7-9-9-7-7-9-9-|-7-7-9-9-7-7-9-9-|-----------------|-----------------|-----|
A|-5-5-5-5-5-5-5-5-|-5-5-5-5-5-5-5-5-|-7-7-9-9-7-7-9-9-|-7-7-9-9-7-7-9-9-|-7\\-|
E|-----------------|-----------------|-5-5-5-5-5-5-5-5-|-5-5-5-5-5-5-5-5-|-5\\-|


************************************

| p  Pull-off
| /  Slide up
| h  Hammer-on
| b  Bend
| x  Dead note
| \  Slide down

************************************
Suggest correction
comments
print report bad tab
guest
Wanna post a correction for this tab? Suggest correction