Oops, an error
Loading. Please wait.

Listen To Your Heart Chords

version 3
version 3

Acoustic

Whole song

Interactive

19 views 1 this week
no commentswrite comment
1 2 3 4 5
3 more votes to show rating
add to favorites
launch autoscroll
font size
0
reset
transpose
0
reset
simplify chords
display chords
guitar tuner
Autoscroll
slow
fast
+/-
esc
set tempo
stop
Help us to improve Ultimate-Guitar.com Take our survey!
×
Author
Difficulty
Capo
intermediate
2nd fret
LISTEN TO YOUR HEART Acoustic by Roxette
Tabbed by Buenofine Calse

Based on YouTube's 'Roxette - Listen To Your Heart | MTV Unplugged'
LINK: https://www.youtube.com/watch?v=li1B2L3liN0

Embellished along with other acoustic versions.

CAPO: 2nd fret

*** you may play it without a capo

[Intro]
       Am     F        FM7 G                 Am   F       FM7  G     Am
e|------------3--1--0------------------|----------3p0------------------------------|
B|-----0--1-------------1--3--1-1/5----|-----0h1------3p1-1----0-3---0h1-1p0-------|
G|-----2--2-------------2--------------|------------------2------------------2-----|
D|----------------------3--------------|------------------3------------------2-----|
A|--0---------------------------0------|-----0-----------------------0-------------|
E|-------------------------3-----------|-----------------------3-------------------|(2x)

Am  F  G  Am (2x)

[Verse]
Am             FM7              G            Am
I know there's something in the wake of your smile
Am      FM7             G            Am
I get a notion from the look in your eyes , yeah
Am             FM7           G            Am
You've built a love but that love falls apart 
                          F          Dm
you little piece of heaven  turns to dark

[Chorus]
               Am    F           C           G            
Listen to your heart , when he's calling for you
               Am    F                 C            G
Listen to your heart , there's nothing else you can do 
        C              G          F            C
I don't know where you going, and I don't know why
                   Am   F    G                    Am
But listen to your heart, before you tell him goodbye

       Am     F        FM7 G                 Am   F       FM7  G     Am
e|------------3--1--0------------------|----------3p0------------------------------|
B|-----0--1-------------1--3--1-1/5----|-----0h1------3p1-1----0-3---0h1-1p0-------|
G|-----2--2-------------2--------------|------------------2------------------2-----|
D|----------------------3--------------|------------------3------------------2-----|
A|--0---------------------------0------|-----0-----------------------0-------------|
E|-------------------------3-----------|-----------------------3-------------------|(2x)

[Verse]
Am            FM7            G             Am  
Sometimes you wonder if this fight is worthwhile
             FM7             G           Am     
The precious moments are all lost in the tide , yeah
              FM7              G          Am
They're swept away and nothing is what it seems
                         F         Dm
The feeling of belonging , to your dreams

[Chorus]
               Am    F           C           G            
Listen to your heart , when he's calling for you
               Am    F                 C            G
Listen to your heart , there's nothing else you can do 
        C              G          F            C
I don't know where you going, and I don't know why
                   Am   F    G                    Am
But listen to your heart, before you tell him goodbye

[Interlude]
Am  F  G  
Am  C  G  F  Am  
Am  F  G

[Bridge]
D
And there are voices that want to be heard
Bm
So much to mention but you can't find the words
A
The scent of magic
G
The beauty that's been
A                      B            Bsus
When love was wilder , than the wind

[Chorus]
               C#m   A           E           B            
Listen to your heart , when he's calling for you
               C#m   A                 E            B
Listen to your heart , there's nothing else you can do 
        E              B          A            E
I don't know where you going, and I don't know why
                   C#m   A    B                    C#m
But listen to your heart , before you tell him goodbye

C#m  A  E  B                    C#m   A     E      B
                 Listen to your heart , MmmMmmMmmmMmmMmm
        E              B          A            E
I don't know where you going, and I don't know why
                   C#m   A    B  (pause)                          (outro)
But listen to your heart , before ..............you tell him goodbye

[Outro] 
C#m  A  B  C#m  
C#m  A  B  E 

/buend.

************************************

| p  Pull-off
| h  Hammer-on
| /  Slide up

************************************
Suggest correction
Give kudos to tab author, rate the tab!
1 2 3 4 5
comments
print report bad tab
guest
You may want to rate the tab now too:
select rating
Wanna post a correction for this tab? Suggest correction