Oops, an error
Loading. Please wait.

Listen To Your Heart Tab

version 2
version 2

Intro

Whole song

Interactive

3,916 views 27 this week
no commentswrite comment
1 2 3 4 5
worth learning
x 1
add to favorites
launch autoscroll
font size
0
reset
how to read this tab
guitar tuner
Tab Pro tools
  • play this tab
  • loop segment
  • change instrument
  • show fretboard
  • metronome
×
Best way to learn
"Listen To Your Heart"
Autoscroll
slow
fast
+/-
esc
set tempo
stop
Contributor
First Tab, hope you like it, please rate and let me know if I need any corrections. :)

Listen To Your Heart, Roxette


e|------------3--1--0------------------------3p0-----1------------------------|
B|-----0--1------------3--1-1/5---------0h1------3p1-1----0-3---0h1-1p0-------|
G|-----2--2------------------------------------------2------------------2-----|
D|---------------------------------------------------3------------------------|
A|--0-------------------------0---------0------------3----------0-------------|
E|------------1--------3-----------------------------1----0-3-----------------|



 Am       F                       G            Am
 I know there's something in the wake of your smile.
       F                  G           Am
 I get a notion from the look in your eyes, yea.
              F                G           Am
 You've built a love but that love falls apart.
                            F              Dm
 Your little piece of heaven turns too dark.

                 Am  F           C           G
 Listen to your heart when he's calling for you.
                 Am  F                 C            G
 Listen to your heart there's nothing else you can do.
           C                G        F            C
 I don't know where you're going and I don't know why,
                     Am  F      G                    
 but listen to your heart before you tell him goodbye.



e|------------3--1--0------------------------3p0-----1------------------------|
B|-----0--1------------3--1-1/5---------0h1------3p1-1----0-3---0h1-1p0-------|
G|-----2--2------------------------------------------2------------------2-----|
D|---------------------------------------------------3------------------------|
A|--0-------------------------0---------0------------3----------0-------------|
E|------------1--------3-----------------------------1----0-3-----------------|


 Am                     F                               G               Am
 Sometimes you wonder if this fight is worthwhile.
        F                                       G                  Am
 The precious moments are all lost in the tide, yea.
                F                                       G                 Am
 They're swept away and nothing is what is seems,
                                        F                       Dm
 the feeling of belonging to your dreams.

                 Am  F           C           G
 Listen to your heart when he's calling for you.
                 Am  F                 C            G
 Listen to your heart there's nothing else you can do.
           C                G        F            C
 I don't know where you're going and I don't know why,
                     Am  F      G                               Am
but listen to your heart before you tell him goodbye.



Break:  Am F C G 



  A
  And there are voices that want to be heard.
  F#m
  So much to mention but you can't find the words.
  E                             D
  The scent of magic, the beauty that's been
  E                             F#
  when love was wilder than the wind.

                 Dm A#           F          B#
 Listen to your heart when he’s calling for you
                 Dm  A#                F           B#
 Listen to your heart, there’s nothing else you can do
           F               B#       A#             F
 I don’t know where you’re going and I don’t know why,
                     Dm A#    B#                   Dm
 but listen to your heart before you tell him goodbye.

comments
We did not receive enough feedback on this tab! Please rate:
print report bad tab
1 2 3 4 5
I want to post or [tab]
guest
You may want to rate the tab now too:
select rating
Please do not post tabs as comments. Select "correction" instead!