Oops, an error
Loading. Please wait.

She Doesnt Live Here Anymore bass

by Roxette
828 views 1 this week
no commentswrite comment
1 2 3 4 5
3 more votes to show rating
add to favorites
×
Save as Personal and add changes to this tab that will be seen only by you. Learn more ›
×
You can save this tab as Personal to edit and correct it or add notes. All changes will be seen only by you. Learn more »
launch autoscroll
font size
0
reset
guitar tuner
edit
Autoscroll
slow
fast
+/-
esc
set tempo
stop
Author
Difficulty
Roxette - She doesn't live here anymore

Tabbed by medusa1148

Standard tuning - EADGBE

Before you continue i know this isn't perfect so don't email me with complaints
although helpful comments on how to improve are more that welcome.

~ = Let ring
s  = Slide

Intro

G ------------------------------------------------------------------|
D ------------------------------------------------------------------|
A -0-0-0-0-0-0-0-0-7-7-7-7-7-7-7-7-5-5-5-5-5-5-5-5-7-7-7-7-7-7-7-7--| x2
E ------------------------------------------------------------------|

Verse

G ------------------------------------------------------------------|
D ------------------------------------------------------------------|
A -0-0-0-0-0-0-0-0----------------5-5-5-5-5-5-5-5-------------------| X2
E -----------------0-0-0-0-0-0-0-0----------------0-0-0-0-0-0-0-0---|

Pre-Chorus

G ---------------------------------------------------------------|
D ---------------------------------------------------------------|
A -----------------4-4-4-4-4-4-4-4-----------------2~~-----------|
E -2-2-2-2-2-2-2-0-----------------2-2-2-2-2-2-2-2---------------|

Chorus

G ---------------------------------------------------------------|
D ---------------------------------------------------------------|
A -0-0-0-0-0-0-0-0s7-7-7-7-7-7-7-7-5-5-5-5-5-5-5s7-7-7-7-7-7-7-7-|
E ---------------------------------------------------------------|

G ---------------------------------------------------------------|
D ---------------------------------------------------------------|
A -0-0-0-0-0-0-0-0s11-9-7-5-5-5-5-5-5-5-5-7-7-7-7-7-7-7-7--------|
E ---------------------------------------------------------------|

G ----------------------------------------------------------------|
D ----------------------------------------------------------------|
A -----------------5-5-5-5-5-5-5-5--------------------7-12-11-9-7-|
E -2-2-2-2-2-2-2-2-----------------2-2-2-2-2-2-2-2--0-------------|

2nd Verse

G -----------------------------------------------------------------|
D -----------------------------------------------------------------|
A -0-0-0-0-0-0-0-0-----------------5-5-5-5-5-5-5-5-----------------|  X2
E -----------------0-0-0-0-0-0-0-0-----------------0-0-0-0-0-0-0-0-|


2nd Pre-chorus

G ---------------------------------------------------------------|
D ---------------------------------------------------------------|
A -------------------4-4-4-4-4-4-4-4---------------------2~~-----|
E -2-2-2-2-2-2-2-0--------------------2-2-2-2-2-2-2-2------------|


2nd Chorus

G ---------------------------------------------------------------|
D ---------------------------------------------------------------|
A -0-0-0-0-0-0-0-0s7-7-7-7-7-7-7-7-5-5-5-5-5-5-5s7-7-7-7-7-7-7-7-|
E ---------------------------------------------------------------|

G ---------------------------------------------------------------|
D ---------------------------------------------------------------|
A -0-0-0-0-0-0-0-0s11-9-7-5-5-5-5-5-5-5-5-7-7-7-7-7-7-7-7--------|
E ---------------------------------------------------------------|

G -----------------------------------------------------------------|
D -----------------------------------------------------------------|
A -------------------5-5-5-5-5-5-5-5-------------------7-12-11-9-7-|
E -2-2-2-2-2-2-2-2-------------------2-2-2-2-2-2-2-2--0------------|

Solo

G ------------------------------------------------------------------|
D ------------------------------------------------------------------|
A -0-0-0-0-0-0-0-0-7-7-7-7-7-7-7-7-5-5-5-5-5-5-5-5-7-7-7-7-7-7-7-7--| X2
E-------------------------------------------------------------------|

G ----------------------------------------------|
D ----------------------------------------------|
A -----5~ -------------5~ -7--12-11-14-13-------|
E -2-0------5-0---2-0-------0-------------------|

Last chorus (key change)

G -----------------------------------------------------------------|
D -----------------------------------------------------------------|
A -2-2-2-2-2-2-2-2-9-9-9-9-9-9-9-9-7-7-7-7-7-7-7-7-9-9-9-9-9-9-9-9-|
E -----------------------------------------------------------------|

G -----------------------------------------------------------------|
D -----------------------------------------------------------------|
A -2-2-2-2-2-2-2-2-13-11-9-7-7-7-7-7-7-7-7-9-9-9-9-9-9-9-9---------|
E -----------------------------------------------------------------|

G -----------------------------------------------------------------|
D -----------------------------------------------------------------|
A -------------------------------------------------9-7-14-13-11-9--|
E -4-4-4-4-4-4-4-4-0-0-0-0-0-0-0-0-4-4-4-4-4-4-4-4-----------------|

Repeat to fade ( there is a few slides and different notes here which
i haven't tabbed)

G ------------------------------------------------------------------|
D ------------------------------------------------------------------|
A -2-2-2-2-2-2-2-2-9-9-9-9-9-9-9-9-7-7-7-7-7-7-7-7-9-9-9-9-9-9-9-9--|
E ------------------------------------------------------------------|

G ------------------------------------------------------------------|
D ------------------------------------------------------------------|
A -2-2-2-2-2-2-2-2-13-11-9-7-7-7-7-7-7-7-7-9-9-9-9-9-9-9-9----------|
E ------------------------------------------------------------------|

Any comments please email me at medusa1148@hotmail.com

            
            
Suggest correction
Creating personal tab
Creating personal tab
You can edit any tab online and save it as your Personal.

You can edit, replace or remove any tab part or add personal notes – all changes will be seen only by you.

Personal tabs can be accessed anytime from any device, even offline.
Learn more »
Give kudos to tab author, rate the tab!
1 2 3 4 5
comments
print report bad tab
guest
You may want to rate the tab now too:
select rating
Wanna post a correction for this tab? Suggest correction