Oops, an error
Loading. Please wait.

Solar Angels Tab

135 views 1 this week
no commentswrite comment
1 2 3 4 5
3 more votes to show rating
add to favorites
launch autoscroll
font size
0
reset
how to read this tab
guitar tuner
×
Best way to learn
"Solar Angels"
Autoscroll
slow
fast
+/-
esc
set tempo
stop
#----------------------------------PLEASE NOTE--------------------------------#
#This file is the author's own work and represents their interpretation of the#
#song. You may only use this file for private study, scholarship, or research.#
#-----------------------------------------------------------------------------#

Roxette - Solar Angels

lyrics are at the end of the file


[A] alone with just guitar
 
e|--------------------|
B|--------------------|
G|--------------------|
D|--------------------|
A|--------------------|
E|---0-0-0-0-0-0-0-0--|(x8)

  [B] play over A 2nd guitar
e|---------------------------------------------------------|
B|---------------------------------------------------------|
G|-2---4-------9----7--------2---4---9----7---7--6---6--4--|
D|-0---2-------7----5--------0---2---7----5---5--4---4--2--|
A|---------------------------------------------------------|
E|---------------------------------------------------------|


[Verse]

e|---------------------------------------------------------|
B|------3---------3---------5--------5---------------------|
G|--2---2-----2---2---------4----2---4---------------------|
D|--2---0-----2---0---------2----0---2---------------------|
A|--0---------0--------------------------------------------|
E|---------------------------------------------------------|(x2)


[Chorus]

                                            (x2) [End 2]
e|---------------------------------------------|-----------|
B|------8---------6-----------5---10--10--8----|-----------|
G|------7---------5----2--2---4---9---9---7----|-----------|
D|-5----5----3----3----0--0---2---7---7---5----|----2------|
A|-5---------3---------------------------------|----2------|
E|-3---------1---------------------------------|----0------|(x2)


[Main Lead Parts]

e|-----------------------------------10--10--7\------------|
B|--------12-------------------------10--10--7\------------|
G|----11--------9b(10)--7--9--7----------------------------|
D|-9-----------------------------9-------------------------|
A|---------------------------------------------------------|
E|---------------------------------------------------------|

e|---------------------------------------------------------|
B|--------12-----------------------------------------------|
G|----11-------9b(10)--7--9--7--------7--7------4----------|etc
D|-9----------------------------9-----7--7------4----------|
A|---------------------------------------------------------|
E|---------------------------------------------------------|

  end lead
e|-----------------15b(17)--------17b(19)------------------|
B|--17b(19)------------------------------------------------|
G|------------16-------------16----------------------------|
D|---------------------------------------------------------|
A|---------------------------------------------------------|
E|---------------------------------------------------------|

[Verse]
[Chorus]

[Ending]

e|----------------------------------------------------------|(x2)
B|----------------------------3------3----3-----------------|
G|-2--2--4---9--9--7----------2------2----2---2--2----------|
D|-0--0--2---7--7--5-------2--0---2--0----0---2--2----------|
A|-------------------------0------0--------------0----2-----|
E|----------------------------------------------------0-----|fade E

Solar Angels  (Higginbotham/Wright)

Golden halos radiating higher
Diamond visions softly breathing fire
Sky procession we are watching you arrive

Silver crystals arching beams below
White light spirals, lifting up to go
Glass formations, solar angels spread their wings

Solo:  (Jenny)

Spectral Gliders drifting in the air
Wheels of wonder floating everywhere
Draped in rainbows, gently we ascend



************************************

| \  Slide down  
| b  bend

************************************
Suggest correction
Give kudos to tab author, rate the tab!
1 2 3 4 5
comments
print report bad tab
guest
You may want to rate the tab now too:
select rating
Wanna post a correction for this tab? Suggest correction