Oops, an error
Loading. Please wait.

Things Will Never Be The Same chords

version 3
version 3

Whole song

by Roxette
298 views 6 this week
no commentswrite comment
1 2 3 4 5
3 more votes to show rating
add to favorites
×
Save as Personal and add changes to this tab that will be seen only by you. Learn more ›
×
You can save this tab as Personal to edit and correct it or add notes. All changes will be seen only by you. Learn more »
launch autoscroll
font size
0
reset
transpose
0
reset
display chords
guitar tuner
edit
Autoscroll
slow
fast
+/-
esc
set tempo
stop
Strumming
There is no strumming pattern for this song yet. and get +5 IQ
Roxette (from the "Joyride" studio album)
'Things Will Never Be The Same'

Capo 1st fret

[Pre-intro](single strums):

Bm    D A  G    G A      Bm    D  A   Em    G A
with classical guitar (no capo):
e|-----3---------3---------------3-6-4p3-----3--|
B|--3-4-3-4---3-4-3-4/6-4p3-3-3/4-6-----6-3-4-3-|
G|-5-------5-5-------------5--------------------|
D|----------------------------------------------|
A|----------------------------------------------|
E|----------------------------------------------|

[Intro]
Bm D Bm A E

       Bm                                 D              Bm            G               Bm           A
Lay it down, pull my heart to the ground, Time's getting cold, now the leaves all turn hard and blue
      Bm                           D           Bm          G          Bm          A             E
And I know when I gaze to the sun, no place to hide, I got nowhere to run from you, away from you...
Em                   D                C                 G
Hold me now, girl, I don't know when, when we will ever meet again
Em                   D              C               Bm
That was then, baby, this is now, I try to get over you...
       Em                 G       D        C                     D         Em       G              D Am
Losing you... Things will never be the same. Can you hear me call your name?  If we changed it back again
             C       D
things would never be...
        Bm                                             D         Bm             G           Bm
In your hand, babe, I don't understand, you've got the eyes of a child, but you hurt like a man
      A          E
always do, always do...
Em                    D                C                 G
Touch me now, girl, I don't know when, when we will ever meet again
Em                   D            C                   Bm
That was then, baby, this is now, time won't get over you...
       Em                 G       D        C                     D         Em       G              D Am
Losing you... Things will never be the same. Can you hear me call your name?  If we changed it back again
             C       D
things would never be, be, be...

[Break]
 F#m            A            F#m        E                F#m   A   F#m   E   B
with classical guitar (no capo):                          electric guitar lead
e|----------6-----------------------------------------------------------------|
B|-8-8-6-8-8-8-6-6-------------------------------6-8-8/10-8-------------------|
G|--------------7-7-5-7-5-3-5/7-5-----7-5-5-----5-----------------------------|
D|-------------------------------8-5-5-----8-7-8------------------------------|
A|----------------------------------------------------------------------------|
E|----------------------------------------------------------------------------|

       F#m                A       E        D                     E         F#m       A              E Bm
Losing you... Things will never be the same. Can you hear me call your name?   If we changed it back again
             D       E        F#m             A       E        D                           E
things would never be the same... Things will never be the same. Can you hear, Can you hear me call
         F#m      A              E Bm                 D       E        C#m...
your name?  If we changed it back again, things would never be the same...
C#m                                       C#m Outro arpeggio...
classical    electric    classical
e|--------------------------------------------8---------5---|
B|-----------------------8-6-8/10-8-6-----5h6---6-6-5h6--6--|
G|-7-5-------------------------------7-------7---7-----7--7-|
D|----7-5-5-------------------------------------------------|
A|-------8-5------------------------------5----5----5-------|
E|----------------------------------------------------------|

            
            
Suggest correction
Creating personal tab
Creating personal tab
You can edit any tab online and save it as your Personal.

You can edit, replace or remove any tab part or add personal notes – all changes will be seen only by you.

Personal tabs can be accessed anytime from any device, even offline.
Learn more »
Give kudos to tab author, rate the tab!
1 2 3 4 5
comments
print report bad tab
guest
You may want to rate the tab now too:
select rating
Wanna post a correction for this tab? Suggest correction