Oops, an error
Loading. Please wait.

Over You solo tab

37 views 3 this week
no commentswrite comment
1 2 3 4 5
3 more votes to show rating
add to favorites
×
Save as Personal and add changes to this tab that will be seen only by you. Learn more ›
×
You can save this tab as Personal to edit and correct it or add notes. All changes will be seen only by you. Learn more »
launch autoscroll
font size
0
reset
how to read this tab
guitar tuner
edit
Autoscroll
slow
fast
+/-
esc
set tempo
stop
Author
Difficulty
About this tab version
Lead riffs and main solo tabbed out for lead guitar. Was this info helpful? Yes No
Guitar solo by Phil Manzanera on Over You (1980). 
This great sounding solo isn't particularly difficult or overly fast, 
but it does require some finesse to get the bend and release parts right.

MAIN RIFF DURING VERSES:

  D(sus2)          G(6)    A(6)
  1 + 2 + 3 + 4 +  1 + 2 + 3 + 4 +  
e|--0---0---0---0-|--0-------0---0-|
B|3---3---3---3---/5---5-5/7--\5---|
G|----------------|----------------|
D|----------------|----------------|
A|----------------|----------------|
E|----------------|----------------|

SOLO 1
  D     Em7
  1 + 2 + 3 + 4 +  1 + 2 + 3 + 4 +  
e|------------0---|----0-------0---|
B|------------3---|----3-------3---|
G|----2-------0---|----0-------0---|
D|0-0---2---------|----------------|
A|----------------|----------------|
E|----------------|----------------| 

MAIN SOLO: Some distortion on the D chord vibrato parts.

  VIBRATO 
E|--V-V---0-0-0-0-|--V-V---0-0-0-0-|
B|--3-3---5/7\5-3-|--3-3---5/7\5-3-|
G|--2-2-----------|--2-2-----------|
D|----------------|----------------|
A|----------------|----------------|
E|----------------|----------------|

 THEN:3 x bend & release riffs
E|----------------|------------------|------------------15~~|
B|----------------|--------------10~~|---15b17r15-14-15-----|
G|---7b9r7-6-7-9~~|---9b10r9-7-6-----|----------------------|
D|----------------|------------------|----------------------|
A|-0~~~~----------|-0~~~~------------|-0~~~~~---------------|
E|----------------|------------------|----------------------|


MAIN RIFF AND FIRST SOLO FROM maguri's 'Version 1' Chords.
Suggest correction
Creating personal tab
Creating personal tab
You can edit any tab online and save it as your Personal.

You can edit, replace or remove any tab part or add personal notes – all changes will be seen only by you.

Personal tabs can be accessed anytime from any device, even offline.
Learn more »
Give kudos to tab author, rate the tab!
1 2 3 4 5
comments
print report bad tab
guest
You may want to rate the tab now too:
select rating
Wanna post a correction for this tab? Suggest correction