Oops, an error
Loading. Please wait.

Love Will Bring Us Back Together bass

25 views 3 this week
no commentswrite comment
1 2 3 4 5
2 more votes to show rating
add to favorites
×
Save as Personal and add changes to this tab that will be seen only by you. Learn more ›
×
You can save this tab as Personal to edit and correct it or add notes. All changes will be seen only by you. Learn more »
launch autoscroll
font size
0
reset
guitar tuner
edit
Autoscroll
slow
fast
+/-
esc
set tempo
stop
Artist: Roy Ayers
Song: Love Will Bring Us Back Together
Tuning - Standard
tabbed by electricbunny

[Intro]                                                             
G|--------------------------------|----------------1-1---3---------|
D|--------------------------------|----------------------------1---|
A|--------------------------------|1-1-----------------------------|
E|--------------------3---4-4-4-4-|--------------------------------|
 
G|--------------------------------|----------------1-1---3---------|
D|----------1-----1---------------|----------------------------1---|
A|------------4-1-------------0---|1-------------------------------|
E|--------------------4---4-------|--------------------------------|
 
G|--------------------------------|----------------1-1---3---------|
D|----------------1---------------|----------------------------1---|
A|------------4-1-------------0---|1-------------------------------|(x2)
E|--------------------4---4-------|--------------------------------|

G|--------------------------------|----------------0-0---2---------|
D|----------------1---------------|----------------------------0---|
A|------------4-1-------------0---|0-------------------------------|
E|--------------------4---4-------|--------------------------------|
 
G|--------------------------------|----------------0-0---2---------|
D|----------------0---------------|----------------------------0---|
A|------------3-0-----------------|0-------------------------------|
E|--------------------3---3---4---|--------------------------------|
 
G|--------------------------------|----------------0-0---2---------|
D|------------0---0---------------|----------------------------0---|
A|--------------0-----------------|0-------------------------------|(x2)
E|--------------------3---3---4---|--------------------------------|

                                  [Verse]                           
G|--------------------------------|----------------1-1---3---------|
D|------------0---0---------------|----------------------------1---|
A|--------------0-----------------|1-------------------------------|
E|--------------------3---3---4---|--------------------------------|
 
G|--------------------------------|----------------1-1---3---------|
D|------------1---1---------------|----------------------------1---|
A|--------------1-------------0---|1-------------------------------|(x3)
E|--------------------4---4-------|--------------------------------|

G|--------------------------------|----------------0-0---2---------|
D|------------1---1---------------|----------------------------0---|
A|--------------1-------------0---|0-------------------------------|
E|--------------------4---4-------|--------------------------------|
 
G|--------------------------------|----------------0-0---2---------|
D|------------0---0---------------|----------------------------0---|
A|--------------0-----------------|0-------------------------------|(x2)
E|--------------------2---3---4---|--------------------------------|
 
[Chorus]                                                            
G|--------------------------------|----------------0-0---2---------|
D|------------0---0---------------|----------------------------0---|
A|--------------0-----------------|0-------------------------------|
E|--------------------2---3---4---|--------------------------------|
 
G|--------------------------------|----------------1-1---3---------|
D|------------0---0---------------|----------------------------1---|
A|--------------0-----------------|1-------------------------------|
E|--------------------2---3---4---|--------------------------------|
 
G|--------------------------------|----------------1-1---3---------|
D|------------1---1---------------|----------------------------1---|
A|--------------1-------------0---|1-------------------------------|(x3)
E|--------------------3---4-------|--------------------------------|

G|--------------------------------|----------------0-0---2---------|
D|------------1---1---------------|----------------------------0---|
A|--------------1-------------0---|0-------------------------------|
E|--------------------3---4-------|--------------------------------|
 
G|--------------------------------|----------------0-0---2---------|
D|------------0---0---------------|----------------------------0---|
A|--------------0-----------------|0-------------------------------|(x3)
E|--------------------2---3---4---|--------------------------------|

[Interlude]                                                        
G|----------------------------3-6-|----3---------------------------|
D|------------------------3-4-----|--------------------------------|
A|--------------------------------|--------------------------------|
E|--------------------------------|--------------------------------|
 
G|1-3-----------------------1-3-6-|----3---------------------------|
D|------------------------3-------|--------------------------------|
A|--------------------------------|--------------------------------|
E|--------------------------------|--------------------------------|
 
G|--------------------------1-3-6-|----3---------------------------|
D|------------------------3-------|--------------------------------|
A|--1-----------------------------|--------------------------------|(x3)
E|4-------------------------------|--------------------------------|

G|--------------------------0-2-5-|----2---------------------------|
D|------------------------2-------|--------------------------------|
A|--0-----------------------------|--------------------------------|(x3)
E|3-------------------------------|--------------------------------|

                                   [Verse]                         
G|--------------------------------|----------------1-1---3---------|
D|--------------------------------|----------------------------1---|
A|--0-----------------------------|1-------------------------------|
E|3-------------------------------|--------------------------------|
 
G|--------------------------------|----------------1-1---3---------|
D|----------------0-1-------------|----------------------------1---|
A|--------------4-----------------|1-------------------------------|
E|----------------------4---------|--------------------------------|
 
G|--------------------------------|----------------1-1---3---------|
D|--------------------------------|----------------------------1---|
A|------------4-1-4---------------|1-------------------------------|
E|--------------------3-----------|--------------------------------|
 
G|--------------------------------|----------------1-1---3---------|
D|--------------------------------|----------------------------1---|
A|------------4-1-4---------------|1-------------------------------|
E|--------------------3---4---5---|--------------------------------|
 
G|--------------------------------|----------------0-0---2---------|
D|--------------------------------|----------------------------0---|
A|------------4-1-4---------------|0-------------------------------|
E|--------------------3---4---5---|--------------------------------|
 
G|--------------------------------|----------------0-0---2---------|
D|--------------------------------|----------------------------0---|
A|------------3-0-3---------------|0-------------------------------|(x3)
E|--------------------2---3---4---|--------------------------------|

G|--------------------------------|----------------1-1---3---------|
D|--------------------------------|----------------------------1---|
A|------------3-0-3---------------|1-------------------------------|
E|--------------------2---3---4---|--------------------------------|
 
G|--------------------------------|----------------1-1---3---------|
D|--------------------------------|----------------------------1---|
A|------------4-1-4---------------|1-------------------------------|(x3)
E|--------------------3---4---5---|--------------------------------|

G|--------------------------------|----------------0-0---2---------|
D|--------------------------------|----------------------------0---|
A|------------4-1-4---------------|0-------------------------------|
E|--------------------3---4---5---|--------------------------------|
 
G|--------------------------------|----------------0-0---2---------|
D|--------------------------------|----------------------------0---|
A|------------3-0-3---------------|0-------------------------------|
E|--------------------2---3---4---|--------------------------------|
 
[Chorus]                                                           
G|--------------------------------|----------------0-0---2---------|
D|--------------------------------|----------------------------0---|
A|------------3-0-3---------------|0-------------------------------|(x2)
E|--------------------2---3---4---|--------------------------------|

[Interlude]                                                        
G|----------------------------3-6-|----3---------------------------|
D|------------------------3-4-----|--------------------------------|
A|--------------------------------|--------------------------------|
E|--------------------------------|--------------------------------|
 
G|1-3-----------------------1-3-6-|----3---------------------------|
D|------------------------3-------|--------------------------------|
A|--------------------------------|--------------------------------|
E|--------------------------------|--------------------------------|
 
G|--------------------------1-3-6-|----3---------------------------|
D|------------------------3-------|--------------------------------|
A|--1-----------------------------|--------------------------------|(x3)
E|4-------------------------------|--------------------------------|

G|--------------------------0-2-5-|----2---------------------------|
D|------------------------2-------|--------------------------------|
A|--0-----------------------------|--------------------------------|(x3)
E|3-------------------------------|--------------------------------|

                                  [Verse]                           
G|--------------------------------|----------------1-1---3---------|
D|--------------------------------|----------------------------1---|
A|--0-----------------------------|1-------------------------------|
E|3-------------------------------|--------------------------------|
 
G|--------------------------------|----------------1-1---3---------|
D|----------------0-1-------------|----------------------------1---|
A|--------------4-----------------|1-------------------------------|
E|----------------------4---------|--------------------------------|
 
G|--------------------------------|----------------1-1---3---------|
D|--------------------------------|----------------------------1---|
A|------------4-1-4---------------|1-------------------------------|(x2)
E|--------------------3---4---5---|--------------------------------|

G|--------------------------------|----------------0-0---2---------|
D|--------------------------------|----------------------------0---|
A|------------4-1-4---------------|0-------------------------------|
E|--------------------3---4---5---|--------------------------------|
 
                                  [Chorus]                          
G|--------------------------------|----------------0-0---2---------|
D|--------------------------------|----------------------------0---|
A|------------3-0-3---------------|0-------------------------------|(x3)
E|--------------------2---3---4---|--------------------------------|

G|--------------------------------|----------------1-1---3---------|
D|--------------------------------|----------------------------1---|
A|------------3-0-3---------------|1-------------------------------|
E|--------------------2---3---4---|--------------------------------|
 
G|--------------------------------|----------------1-1---3---------|
D|--------------------------------|----------------------------1---|
A|------------4-1-4---------------|1-------------------------------|(x2)
E|--------------------3---4---5---|--------------------------------|

                                  [Outro]                           
G|--------------------------------|----------------1-1---3---------|
D|--------------------------------|----------------------------1---|
A|------------4-1-4---------------|1-------------------------------|
E|--------------------3---4---5---|--------------------------------|
 
G|--------------------------------|----------------0-0---2---------|
D|--------------------------------|----------------------------0---|
A|------------4-1-4---------------|0-------------------------------|
E|--------------------3---4---5---|--------------------------------|
 
G|--------------------------------|----------------0-0---2---------|
D|--------------------------------|----------------------------0---|
A|------------3-0-3---------------|0-------------------------------|(x3)
E|--------------------2---3---4---|--------------------------------|

G|----------2-2-------------------|----------------1-1---3---------|
D|--------------------------------|----------------------------1---|
A|--------------------------0---0-|1-------------------------------|
E|----------------------------4---|--------------------------------|
 
G|--------------------------------|----------------0-0---2---------|
D|--------------------------------|----------------------------0---|
A|------------4-1-4---------------|0-------------------------------|
E|--------------------3---4---5---|--------------------------------|
 
G|--------------------------------|----------------0-0---2---------|
D|--------------------------------|----------------------------0---|
A|------------3-0-3---------------|0-------------------------------|
E|--------------------2---3---4---|--------------------------------|
 
G|--------------------------------|
D|--------------------------------|
A|------------3-0-3---------------|
E|--------------------2---3---4---|

            
            
Suggest correction
Creating personal tab
Creating personal tab
You can edit any tab online and save it as your Personal.

You can edit, replace or remove any tab part or add personal notes – all changes will be seen only by you.

Personal tabs can be accessed anytime from any device, even offline.
Learn more »
Give kudos to tab author, rate the tab!
1 2 3 4 5
comments
print report bad tab
guest
You may want to rate the tab now too:
select rating
Wanna post a correction for this tab? Suggest correction