Oops, an error
Loading. Please wait.

Strasbourg St Denis bass

version 1
version 1

Whole song

Interactive

14,954 views 3 this week
no commentswrite comment
1 2 3 4 5
x 4
add to favorites
×
Save as Personal and add changes to this tab that will be seen only by you. Learn more ›
×
You can save this tab as Personal to edit and correct it or add notes. All changes will be seen only by you. Learn more »
launch autoscroll
font size
0
reset
guitar tuner
edit
Autoscroll
slow
fast
+/-
esc
set tempo
stop
Title: Strasbourg St. Denis
Artist: Roy Hargrove Quintet
(www.myspace.com/RoyHargrove - www.vervemusicgroup.com/royhargrove)
Album: Earfood
Author: transcription PH Lhiaubet

Enjoy !

Bass

   Bbm       Cm          Dbmaj7             (Cm)           Bbm       Cm          Dbmaj7
G|---------------------------|---------------------------|---------------------------|
D|---------------------------|---------------------------|---------------------------|
A|-1----1----3---3-------4---|-4-------------3-------3---|-1----1----3---3-------4---|
E|---------------------------|-------------------1-------|---------------------------|

   Dbmaj7    Cm                 Bbm       Cm          Dbmaj7            Ebsus           Abmaj7  
G|----------------------------|---------------------------|---------------------------------|
D|-----------1--2--3----------|---------------------------|---------------------5---8---6---|
A|-4------------------3-------|-1----1----3---3-------4---|-4---4---5---6-------------------|
E|-----------------------1----|---------------------------|---------------------------------|

   Abmaj7      AbM7 GM7 F#M7 F7(b9)
G|------------------------------|--------------------|
D|------------------------------|-----5---3----------|
A|-6----------------------------|-3------------------|
E|-----4-------4---3---2---1----|--------------------|





For info : Theme (Trumpet)

E|-4--1-----1---------------------------|-------------|-4--1-----1---------------------------|
B|-------4-----1------------------------|-------------|-------4-----1------------------------|
G|----------------3--1---------3---1----|-1-----------|----------------3--1---------3---1----|
D|----------------------3--1------------|-------------|----------------------3--1------------|
A|--------------------------------------|-------------|--------------------------------------|
E|--------------------------------------|-------------|--------------------------------------|


E|-------------|-4--1-----1---------------------------|-------------|----------------------------|
B|-------------|-------4-----1------------------------|-------------|----------------------------|
G|-1-----------|----------------3--1---------3---1----|-1-----------|----------------------------|
D|-------------|----------------------3--1------------|-------------|-5----3--1--------1---3---5-|
A|-------------|--------------------------------------|-------------|--------------3-------------|
E|-------------|--------------------------------------|-------------|----------------------------|


E|--------------------|
B|--------------------|
G|-0---1--------------|
D|----------3---------|
A|--------------------|
E|--------------------|





For info : Chords

   Bbm   Cm    Dbmaj7      (Cm)    Bbm   Cm    Dbmaj7      (Cm)    Bbm   Cm    Dbmaj7
E|-1-----3-----4---|-4-----3-----|-1-----3-----4---|-4-----3-----|-1-----3-----4---|
B|-2-----4-----6---|-6-----4-----|-2-----4-----6---|-6-----4-----|-2-----4-----6---|
G|-3-----5-----5---|-5-----5-----|-3-----5-----5---|-5-----5-----|-3-----5-----5---|
D|-3-----5-----6---|-6-----5-----|-3-----5-----6---|-6-----5-----|-3-----5-----6---|
A|-1-----3-----4---|-4-----3-----|-1-----3-----4---|-4-----3-----|-1-----3-----4---|
E|-----------------|-------------|-----------------|-------------|-----------------|

  Dbmaj7 Ebsus Abmaj7     AbM7 GM7 F#M7 F7(b9)
E|-4-----3-----4---|-4-----4---3---2---1----|-1----1----------|
B|-6-----4-----4---|-4-----4---3---2---1----|-1----1----------|
G|-5-----3-----5---|-5-----5---4---3---2----|-2----2----------|
D|-6-----5-----5---|-5-----5---4---3---1----|-1----1----------|
A|-4-----6-----6---|-6-----6---5---4---3----|-3----3----------|
E|-------------4---|-4-----4---3---2---1----|-1----1----------|

            
            
Suggest correction
Creating personal tab
Creating personal tab
You can edit any tab online and save it as your Personal.

You can edit, replace or remove any tab part or add personal notes – all changes will be seen only by you.

Personal tabs can be accessed anytime from any device, even offline.
Learn more »
comments
print report bad tab
guest
You may want to rate the tab now too:
select rating
Wanna post a correction for this tab? Suggest correction