Oops, an error
Loading. Please wait.

Claudette bass

version 1
version 1

Whole song

Interactive

509 views 1 this week
no commentswrite comment
1 2 3 4 5
2 more votes to show rating
add to favorites
×
Save as Personal and add changes to this tab that will be seen only by you. Learn more ›
×
You can save this tab as Personal to edit and correct it or add notes. All changes will be seen only by you. Learn more »
launch autoscroll
font size
0
reset
guitar tuner
backing track
0:00
0:00
edit
Autoscroll
slow
fast
+/-
esc
set tempo
stop
Author
Difficulty
Claudette
Written in 1958 by Roy Orbison it was originally recorded as a B
Side by The Everly Brothers.  This version by the man himself.
Tab by bass50611. Very easy walking bassline. Any comments its
Bass254@btinternet.com

Intro:
G|-------------|----------|---------|-----------------------------------|
D|---NO BASS---|----------|-N0 BASS-|-----------------------------------|
A|---3 BARS----|-7-77-5-7-|--1 BAR--|------------------22-44------22-44-|
E|------ ------|----------|---------|-3---5---7---00-44------00-44------|

Verse:
G|-------------------------------------------------------------------------|
D|----------------------------------------------------22-44------22-44-----|
A|------22-44------22-44------22-44------22-44---00-44------00-44--------2-|
E|-00-44------00-44------00-44------00-44----------------------------------|

Chorus:
G|------------------------------------------------------------------------|
D|------------------------------------------------------------------------|
A|--------2-----4---7---------2------4---7---------2------6---9-----4---7-|
E|-0---4------5--------0---4------5---------0---4------7---------5--------|

G|--------------------------------------------------------------|
D|--------------------------------------------------------------|
A|----6---9-----4---7--------2----4---7--------2-----6---7------|
E|-7---------5---------0---4----5--------0---4----5-----------0-|

Interlude:
G|-------------|----------|---------|-----------------------------------|
D|---NO BASS---|----------|-N0 BASS-|-----------------------------------|
A|----1 BAR----|-7-77-5-7-|--1 BAR--|------------------22-44------22-44-|
E|------ ------|----------|---------|-3---5---7---00-44------00-44------|

Repeats on Verse and Chorus

Outro:
G|-------------|----------|
D|---NO BASS---|----------|
A|----3 BAR----|-7-77-5-7-|
E|------ ------|----------|

            
            
Suggest correction
Creating personal tab
Creating personal tab
You can edit any tab online and save it as your Personal.

You can edit, replace or remove any tab part or add personal notes – all changes will be seen only by you.

Personal tabs can be accessed anytime from any device, even offline.
Learn more »
Give kudos to tab author, rate the tab!
1 2 3 4 5
comments
print report bad tab
guest
You may want to rate the tab now too:
select rating
Wanna post a correction for this tab? Suggest correction