Oops, an error
Loading. Please wait.
We have an official Pretty Woman tab made by UG professional guitarists. Check out the tab »
×
43,939 views 138 this week
2 commentsread comments
1 2 3 4 5
x 7
add to favorites
×
Save as Personal and add changes to this tab that will be seen only by you. Learn more ›
×
You can save this tab as Personal to edit and correct it or add notes. All changes will be seen only by you. Learn more »
save as personal
new!
launch autoscroll
font size
0
reset
transpose
0
reset
simplify chords
display chords
guitar tuner
Autoscroll
slow
fast
+/-
esc
set tempo
stop
Strumming
There is no strumming pattern for this song yet. and get +5 IQ
[Intro riff]  
    */ *
e|-------------------|-----------------|
B|-------------------|-----------------|
G|-------------------|-----------------|  (repeat both measures)
D|--------0----------|-----------------|
A|------2-------2----|-----------------|
E|-0--4------------4-|-----------------|
   
[Play this main riff] (4x)
    x
e|-----------------|
B|-----------------|
G|-----------------|
D|---------0-4-2-0-|
A|-------2---------|
E|-0-0-4-----------|
   

[Verse]
G  Em
Pretty woman walking down the street,
   G   Em
Pretty woman, the kind I'd like to meet.
   CC
Pretty woman...
  D7  D7
I don't believe you -- it must be true.
 D7  D7  
No one could look as good as you.

[Play this main riff] (4x)
    x
e|-----------------|
B|-----------------|
G|-----------------|
D|---------0-4-2-0-|
A|-------2---------|
E|-0-0-4-----------|

Pretty woman, won't you pardon me.
Pretty woman, I couldn't help but see.
Pretty woman...
Oh, you look lovely as you can be.
Are you lonely just like me?
CmF
Pretty woman, stop awhile.
BbEb
Pretty woman, talk awhile.
CmF  Bb - Bb
Pretty woman, give your smile to me.
CmF
Pretty woman, yeah, yeah, yeah,
BbEb
Pretty woman, look my way.
CmFBbG
Pretty woman, say you'll stay with me,
Em   C  D7   [N.S of this line] 

[Play this main riff] (4x)
    x
e|-----------------|
B|-----------------|
G|-----------------|
D|---------0-4-2-0-|
A|-------2---------|
E|-0-0-4-----------|

'Cause I need you, need you tonight.
Pretty woman, don't walk on by.
Pretty woman, don't make me cry.
Pretty woman...
Don't walk away, hey.
Okay.
If that's the way it must be, okay.
I guess I'll go on home, it's late.
There'll be tomorrow night, but wait
What do I see?
She's walking back to me.
Oh, pretty woman.
Suggest correction
comments
print report bad tab
2 comments total.
0 reply
popemanson 10 Jan 26, 2006 11:09 AM

the chords are all a whole step flat the first chord needs to be A not G

0 reply
PiperPilot140 74 Dec 12, 2009 06:23 PM

Wrong key. It's written in A, the whole song is centered around the A riff at the beginning. you just can't play it in a G, if u capo the second fret and put the G your playing becomes an A and it sounds ok.

guest
Wanna post a correction for this tab? Suggest correction