Oops, an error
Loading. Please wait.
We have an official Pretty Woman tab made by UG professional guitarists. Check out the tab »
×

Pretty Woman Tab

version 1
version 1

Intro

Whole song

Interactive

Video

  • It shows you you to use a metronome for effective speed training.
119,623 views 60 this week
2 commentsread comments
1 2 3 4 5
x 26
add to favorites
launch autoscroll
font size
0
reset
how to read this tab
guitar tuner
Autoscroll
slow
fast
+/-
esc
set tempo
stop
Ok This is the perfect intro!!! it is pretty exactly, don?t make noise
to this song, ?cause it?s pretty pretty exactly as the original,
excuseme, this is the original...here it is:

Ok Este es el intro perfecto!!! es exactamente igual, no digas que que
no es cierto, porque es exactamente similar que la original, perd?n
esta es la original... aqui esta:

NOTA: SOLO SIGAN LA CANCI?N COMO VA, NO LA REPITAN HASTA QUE LA
INSTRUCCI?N LES DIGA.

NOTE: JUST FOLLOW THE SONG, DON?T REPITE THE NOTES, ONLY IF THE
INSTRUCCIONS SAYS.

e|---------------------------------------------|
B|---------------------------------------------|        1 time
G|---------------------------------------------|
D|------------0--------------------------------|        1 vez
A|---------2-----------------------------------|
E|--0-0-4--------------------------------------|

till you press the last note, you wait 4 seconds to play another time
and you need to let the cord rings for that 4 seconds.

hasta que presiones la ultima nota, te esperas 4 segundos y vuelves
a tocar lo que est? abajo, y necesitas dejar sonar la ultima nota
en esos 4 segundos de espera.

e|---------------------------------------------|
B|---------------------------------------------|        1 time
G|---------------------------------------------|
D|------------0--------------------------------|        1 vez
A|---------2-----------------------------------|
E|--0-0-4--------------------------------------|

e|---------------------------------------------|
B|---------------------------------------------|        4 times
G|---------------------------------------------|
D|------------0--4-2-0-------------------------|        4 veces
A|---------2-----------------------------------|
E|--0-0-4--------------------------------------|

and when you press the las note is when roy start?s to sing, "Pretty
Woman, Walkin down the street..."!!!
and that?s all, piece of cake.

y cuando tocas la ?ltima nota es cuando roy empieza a cantar,"Pretty
Woman, Walkin down the street..."!!!
y eso es todo, esta de agua vdd???
Suggest correction
comments
print report bad tab
2 comments total.
-1 reply
pommegrenade 30 Mar 05, 2006 07:33 PM

spaniardo???englisho???

-1 reply
AllanFitz 10 Sep 23, 2011 03:00 PM

Speak in english porfavor!

guest
You may want to rate the tab now too:
select rating
Wanna post a correction for this tab? Suggest correction