Oops, an error
Loading. Please wait.
We have an official Pretty Woman tab made by UG professional guitarists. Check out the tab »
×
92,744 views 180 this week
5 commentsread comments
1 2 3 4 5
x 23
add to favorites
×
Save as Personal and add changes to this tab that will be seen only by you. Learn more ›
×
You can save this tab as Personal to edit and correct it or add notes. All changes will be seen only by you. Learn more »
launch autoscroll
font size
0
reset
guitar tuner
edit
Autoscroll
slow
fast
+/-
esc
set tempo
stop
Author
Difficulty
intermediate
G|----------------|----------------|----------------|----------------| 
D|--------0-4-2-0-|--------0-4-2-0-|--------0-4-2-0-|--------0-4-2-0-| 
A|------2---------|------2---------|------2---------|------2---------| 
E|0-0-4-----------|0-0-4-----------|0-0-4-----------|0-0-4-----------| 

G|----------------|----------------|----------------|----------------| 
D|---------2--2---|----------------|------------2-2-|-----------4--2-| 
A|0---0-4---------|------4---2--4--|0---0--4--------|-------4--------| 
E|----------------|2---2-----------|----------------|2---2-----------| 

G|----------------|-------|-------4----4---|-------4----4---| 
D|0---0-----------|0---0--|2---2-----------|2---2-----------| 
A|------0-0---0---|-------|----------------|----------------| 
E|----------------|-------|----------------|----------------| 

G|-------4----4---|-------4----4---| 
D|2---2-----------|2---2-----------| 
A|----------------|----------------| 
E|----------------|----------------| 

G|----------------|----------------|----------------|----------------| 
D|0-----3-----7---|5---3-2-----0---|------2---------|------------2---| 
A|----------------|----------------|3---3-------3-2-|0---2-3---------| 
E|----------------|----------------|----------------|----------------| 

G|----------------|----------------|----------------|----------------| 
D|0---2-3----7----|5---3-2----0----|-----2--2---5---|----2----2--2---| 
A|----------------|----------------|3---------------|3---------------| 
E|----------------|----------------|----------------|----------------| 

G|----------------|----------------|----------------|----------------|
D|0-----3-----7---|5---3-2-----0---|------2---------|------------2---|
A|----------------|----------------|3---3-------3-2-|0---2-3---------|
E|----------------|----------------|----------------|----------------|

G|----------------|----------------|----------------|----------------|
D|0---2-3----7----|5---3-2----0----|------2---------|------------2-4-|
A|----------------|----------------|3---3-------3-2-|0---0-4---------|
E|----------------|----------------|----------------|----------------|

G|----------------|----------------|----------------|----------------|
D|------------4-2-|0---0-3----3----|2---0-----------|------------2-2-|
A|------4---------|----------------|------4----2----|0---0-4---------|
E|2---2-----------|----------------|----------------|----------------|

G|----------------|----------------|
D|4---4-------4-2-|0---0-0-----4---|
A|------4---------|----------------|
E|----------------|----------------|

            
            
Suggest correction
Creating personal tab
Creating personal tab
You can edit any tab online and save it as your Personal.

You can edit, replace or remove any tab part or add personal notes – all changes will be seen only by you.

Personal tabs can be accessed anytime from any device, even offline.
Learn more »
comments
print report bad tab
5 comments total. Showing first comments.
0 reply
mikebundy2 20 Jul 30, 2008 06:13 AM

perfect tab, 5*!!!

+1 reply
bazz205 10 Dec 23, 2008 01:40 AM

The start is wrong. I think the first two segments are supposed to be
G|----------------|----------------|----------------|----------------|
D|--------0~------|--------0~------|--------0-4-2-0-|--------0-4-2-0-|
A|------2---------|------2---------|------2---------|------2---------|
E|0-0-4-----------|0-0-4-----------|0-0-4-----------|0-0-4-----------|
~ = let ring

+1 reply
rogerholt1 113 May 24, 2010 06:38 PM

does the bass play that part? i thought it was e whole notes

guest
You may want to rate the tab now too:
select rating
Wanna post a correction for this tab? Suggest correction