Oops, an error
Loading. Please wait.

Hook Line And Sinker Bass

version 1
version 1

Whole song

  • The right tuning has been applied to the tab to re... Show more

Interactive

658 views 51 this week
no commentswrite comment
1 2 3 4 5
1 last vote to show rating
add to favorites
launch autoscroll
font size
0
reset
guitar tuner
×
Best way to learn
"Hook Line And Sinker"
Autoscroll
slow
fast
+/-
esc
set tempo
stop
Author
Difficulty
  follow
intermediate
About this tab version
The right tuning has been applied to the tab to reach the higher notes during the solo. Was this info helpful? Yes No
I have created the tab in a D,A,A,D tuning. The high A and D have been tuned 7 semitones up
from standard tuning to allow Mike to reach higher notes.

(/) Slide Up  (\) Slide Down  (h) Hammer On  (p) Pull Off  (b) Bend (r) Release (~) Vibrato

If you want to play along to a clearer version of the song
then follow this link - https://www.youtube.com/watch?v=80SnzeFIHK4

Intro:

D|-----------------------------------------       \
A|-----------------------------------------       |
A|-----------------------------------------       |
D|--5--4--3--5--4--3--5--4--3--5--4--3--5--       |
                                                  | x2
D|-----------------------------------------       |
A|-----------------------------------------       |
A|--5--4--3--5--4--3--5--4--3--5--4--3--5--       |
D|-----------------------------------------       /
                   
Verse:

D|-----0-----0--3-----0-----0--3-----0-----0-----------------           \
A|--------3--------------3--------------3-----3b--3--3--4----           |
A|-----------------------------------------------------------           |    
D|--0--------------0--------------0--------------------------           |     
                                                                        |
D|-----0-----0--3-----0-----0--3-----0-----0--3-----0-----------0--     |
A|--------3--------------3--------------3--------3-----3--0--3-----     |
A|-----------------------------------------------------------------     |    
D|--0--------------0--------------0--------------------------------     |
                                                                        |
                                                                        | x2
D|-----0-----0--3-----0-----0--3-----0-----0--3-----0-----------0--     |
A|--------3--------------3--------------3--------3-----3--0--3-----     |
A|-----------------------------------------------------------------     |
D|--5--------------3--------------0--------------------------------     /

Chorus:

D|--------7--10-------------------5b5--3--5----
A|---------------10--8--10-------------------5\
A|---------------------------------------------
D|--0--0--------------------0--0---------------


D|-----------------------------------
A|-----------------------------------
A|--3--3--3--3--2--------------------
D|-----------------5--5--5--3--5--3--


D|--------7--10-------------------5b5--3--5----
A|---------------10--8--10-------------------5\
A|---------------------------------------------
D|--0--0--------------------0--0---------------


D|-----------------------------------------------
A|-----------------------------------------------
A|--3--3--3--3--2--------------------------------
D|-----------------5--5--5--3--5--3--5--3--5--3--

Verse:

D|-----0-----0--3-----0-----0--3-----0-----0-----------------           
A|--------3--------------3--------------3-----3b--3--3--4----          
A|-----------------------------------------------------------              
D|--0--------------0--------------0--------------------------

D|-----0-----0--3-----0-----0--3-----0-----0--3-----0--------------
A|--------3--------------3--------------3--------3-----3--0--3--5--
A|-----------------------------------------------------------------
D|--0--------------0--------------0--------------------------------


D|-----0-----0--3-----0-----0--3-----0-----0--3--5--3--------0--3--0--
A|--------3--------------3--------------3--------------5--3-----------
A|--------------------------------------------------------------------
D|--5--------------3--------------0-----------------------------------


D|-----0-----0--3-
A|--------3-------  x6
A|----------------
D|--0-------------

D|-----0-----0----
A|--------3-------  
A|----------------
D|--0-------------

D|-----0-----0--3-----0------0--3-----0-------0--3-------0------0--3--
A|--------3---------------3----------------3-----------------3--------
A|--------------------------------------------------------------------
D|--5--------------3---------------0----------------0-----------------

Bridge:

D|--------------------------------------------------------------------------------
A|-------------------------------------------------------------------------------- x2
A|-----------------------------------------5--4--3--5--4--3--5--4--3--5--4--3--5--
D|--5--4--3--5--4--3--5--4--3--5--4--3--5-----------------------------------------

Chorus:

D|--------7--10-------------------5b5--3--5----
A|---------------10--8--10-------------------5\
A|---------------------------------------------
D|--0--0--------------------0--0---------------


D|-----------------------------------
A|-----------------------------------
A|--3--3--3--3--2--------------------
D|-----------------5--5--5--3--5--3--


D|--------7--10-------------------5b5--3--5----
A|---------------10--8--10-------------------5\
A|---------------------------------------------
D|--0--0--------------------0--0---------------


D|-----------------------------------
A|-----------------------------------
A|--3--3--3--3--2--------------------
D|-----------------5--5--5--3--5--3--

Bridge:

D|-----------------------------------------------------0/ (Please note that this slide is not possible without
A|-----------------------------------------------------0/  the BOSS Harmonist pedal)
A|-----------------------------------------------------0/
D|--0~~~~~~~~~~~~~~~~~~~~~~~~~~~~~~~~~~~~~~~~~~~~~~~~~~0/

Solo:

D|--------12b12--12b12--10/
A|-------------------------
A|-------------------------
D|--0--0-------------------

D|--------19b19--17--19--17/
A|--------------------------
A|--------------------------
D|--0--0--------------------

Chorus:

D|-----------------------------------
A|-----------------------------------
A|--3--3--3--3--2--------------------
D|-----------------5--5--5--3--5--3--


D|-----------------------------------------------------------------------------
A|-----------------------------------------------------------------------------
A|-----------------------------------------------------------------------------
D|--0--0--0--0--0-3--0--0--0--0--0-3--8--8--8--8--8-7--10--10--12--10--12--10--


D|--------------------------------------------------------------------
A|--------------------------------------------------------------------
A|--------------------------------------------------------------------
D|--5--5--5--5--3--3--3--3--8--8--8--8--10--10--12-12-10-12--10-------

Ending:

D|-----0----
A|--------3b x3
A|----------
D|--0-------


D|-----------------------------
A|-----------------------------
A|-----------------------------
D|--5--4--3--5--4--3--5--4--3--


D|-----0----
A|--------3b x3
A|----------
D|--0-------


D|-----------------------------
A|-----------------------------
A|-----------------------------
D|--5--4--3--5--4--3--5--4--3--


D|-----0--10b-----0--12b-----0--10b--
A|-----------------------------------
A|-----------------------------------
D|--0----------0----------0----------


D|--------------------------------------------------------------------------------------------
A|--------------------------------------------------------------------------------------------
A|--------------------------------------------------------------------------------------------
D|--5--4--3--5--4--3--5----5--4--3--5--4--3--5----7--6--5--7--6--5--7--6--5--0----------------

                                                        http://www.guitartabcreator.com
Suggest correction
Give kudos to tab author, rate the tab!
1 2 3 4 5
comments
print report bad tab
guest
You may want to rate the tab now too:
select rating
Wanna post a correction for this tab? Suggest correction