Oops, an error
Loading. Please wait.

Hook Line And Sinker Bass Tab

version 1
version 1

Whole song

  • The right tuning has been applied to the tab to re... Show more

Interactive

145 views 12 this week
no commentswrite comment
1 2 3 4 5
3 more votes to show rating
add to favorites
launch autoscroll
font size
0
reset
guitar tuner
Autoscroll
slow
fast
+/-
esc
set tempo
stop
Help us to improve Ultimate-Guitar.com Take our survey!
×
Author
Difficulty
intermediate
About this tab version
The right tuning has been applied to the tab to reach the higher notes during the solo. Was this info helpful? Yes No
I have created the tab in a D,A,A,D tuning. The high A and D have been tuned 7 semitones up
from standard tuning to allow Mike to reach higher notes.

(/) Slide Up  (\) Slide Down  (h) Hammer On  (p) Pull Off  (b) Bend (r) Release (~) Vibrato

Intro:

D|-----------------------------------------       \
A|-----------------------------------------       |
A|-----------------------------------------       |
D|--5--4--3--5--4--3--5--4--3--5--4--3--5--       |
                                                  | x2
D|-----------------------------------------       |
A|-----------------------------------------       |
A|--5--4--3--5--4--3--5--4--3--5--4--3--5--       |
D|-----------------------------------------       /
                   
Verse:

D|-----0-----0--3-----0-----0--3-----0-----0--3--0-----0--3--           \
A|--------3--------------3--------------3-----------3-------- x2        |
A|-----------------------------------------------------------           |    
D|--0--------------0--------------0--------------------------           |     
                                                                        |
                                                                        | x2
D|-----0-----0--3-----0-----0--3-----0-----0--3-----0--------------     |
A|--------3--------------3--------------3--------3-----3--0--3--5--     |
A|--0--------------------------------------------------------------     |
D|-----------------5--------------0--------------------------------     /

Chorus:

D|--------7--10-------------------5b5--3--5----
A|---------------10--8--10-------------------5\
A|---------------------------------------------
D|--0--0--------------------0--0---------------


D|-----------------------------------
A|-----------------------------------
A|--3--3--3--3--2--------------------
D|-----------------5--5--5--4--5--4--


D|--------7--10-------------------5b5--3--5----
A|---------------10--8--10-------------------5\
A|---------------------------------------------
D|--0--0--------------------0--0---------------


D|-----------------------------------------------
A|-----------------------------------------------
A|--3--3--3--3--2--------------------------------
D|-----------------5--5--5--4--5--4--5--4--5--4--

Verse:

D|-----0-----0--3-----0-----0--3-----0-----0--3--0-----0--3--
A|--------3--------------3--------------3-----------3--------
A|-----------------------------------------------------------
D|--0--------------0--------------0--------------------------


D|-----0-----0--3-----0-----0--3-----0-----0--3-----0--------------
A|--------3--------------3--------------3--------3-----3--0--3--5--
A|-----------------------------------------------------------------
D|--0--------------0--------------0--------------------------------


D|-----0-----0--3-----0-----0--3-----0-----0--3--5--3--------0--3--0--
A|--------3--------------3--------------3--------------5--3-----------
A|--0-----------------------------------------------------------------
D|-----------------5--------------0-----------------------------------


D|-----0-----0----
A|-------2h3-------  x7
A|----------------
D|--0-------------


D|-----0-----0--3-----0------0--3-----0-------0--3-------0------0--5--
A|--------3---------------3----------------3-----------------3--------
A|--0-----------------------------------------------------------------
D|-----------------5---------------0----------------0-----------------

Bridge:

D|--------------------------------------------------------------------------------
A|-------------------------------------------------------------------------------- x2
A|-----------------------------------------5--4--3--5--4--3--5--4--3--5--4--3--5--
D|--5--4--3--5--4--3--5--4--3--5--4--3--5-----------------------------------------

Chorus:

D|--------7--10-------------------5b5--3--5----
A|---------------10--8--10-------------------5\
A|---------------------------------------------
D|--0--0--------------------0--0---------------


D|-----------------------------------
A|-----------------------------------
A|--3--3--3--3--2--------------------
D|-----------------5--5--5--4--5--4--


D|--------7--10-------------------5b5--3--5----
A|---------------10--8--10-------------------5\
A|---------------------------------------------
D|--0--0--------------------0--0---------------


D|-----------------------------------
A|-----------------------------------
A|--3--3--3--3--2--------------------
D|-----------------5--5--5--4--5--4--

Bridge:

D|-----------------------------------------------------0/
A|-----------------------------------------------------0/
A|-----------------------------------------------------0/
D|--0~~~~~~~~~~~~~~~~~~~~~~~~~~~~~~~~~~~~~~~~~~~~~~~~~~0/

Solo:

D|--------12b10--12b10-----
A|----------------------12\
A|-------------------------
D|--0--0-------------------

D|--------19b19--17--19-----
A|-----------------------19\
A|--------------------------
D|--0--0--------------------

Chorus:

D|-----------------------------------
A|-----------------------------------
A|--3--3--3--3--2--------------------
D|-----------------5--5--5--4--5--4--


D|-------------------------------------------------------------------
A|-------------------------------------------------------------------
A|-------------------------------------------------------------------
D|--0--0--0--0--3--0--0--0--0--3--7--7--7--7--6--9--9--11--9--11--9--


D|--------------------------------------------------------------------
A|--------------------------------------------------------------------
A|--------------------------------------------------------------------
D|--5--5--5--5--3--0--0--0--0--3--7--7--7--7--6--9--9--9--9--9--9--9--

Ending:

D|-----0----
A|--------3b x3
A|----------
D|--0-------


D|-----------------------------
A|-----------------------------
A|-----------------------------
D|--5--4--3--5--4--3--5--4--3--


D|-----0----
A|--------3b x3
A|----------
D|--0-------


D|-----------------------------
A|-----------------------------
A|-----------------------------
D|--5--4--3--5--4--3--5--4--3--


D|-----0--10b-----0--12b-----0--10b--
A|-----------------------------------
A|-----------------------------------
D|--0----------0----------0----------


D|--------------------------------------------------------------------------------------------
A|--------------------------------------------------------------------------------------------
A|--------------------------------------------------------------------------------------------
D|--5--4--3--5--4--3--5--4--3--5--4--3--5--4--3--5--4--3--5--4--3--5--4--3--5--4--3--5--4--3--

                                                        http://www.guitartabcreator.com
Suggest correction
Give kudos to tab author, rate the tab!
1 2 3 4 5
comments
print report bad tab
guest
You may want to rate the tab now too:
select rating
Wanna post a correction for this tab? Suggest correction