Oops, an error
Loading. Please wait.

Hook Line And Sinker intro bass

version 1
version 1

Intro

Whole song

  • The right tuning has been applied to the tab to re... Show more
  • Transcribed for bass guitar in Drop-D tuning.

Interactive

1,687 views 12 this week
2 commentsread comments
1 2 3 4 5
1 last vote to show rating
add to favorites
×
Save as Personal and add changes to this tab that will be seen only by you. Learn more ›
×
You can save this tab as Personal to edit and correct it or add notes. All changes will be seen only by you. Learn more »
launch autoscroll
font size
0
reset
guitar tuner
edit
Autoscroll
slow
fast
+/-
esc
set tempo
stop
Rough tab of the unreleased Royal Blood song 'Hook, Line and Sinker' performed at the Reading Festival 2015.

Played in Drop D tuning.

Tabbed by Thomas Govern




(/) Slide Up  (\) Slide Down  (h) Hammer On  (p) Pull Off  (b) Bend (r) Release (v) Vibrato

Intro:

G|-----------------------------|-----------------------------|
D|-----------------------------|-----------------------------|
A|-----------------------------|--5p4p3--5p4p3--5p4p3p0-3-5--| x2
D|--5p4p3--5p4p3--5p4p3p0-3-5--|-----------------------------|

Verse:

G|-----7--5--7--|     |-----7--5--7--5-----5-----|--
D|--------------|     |-----------------7-----7--|--
A|--------------| x2  |--------------------------|--
D|--0-----------|     |--0-----------------------|--

Chorus:

G|--------2\5---------------------------------------------------------------------|--
D|-------------5--3--------5--3--7--5--3--5---------------------------------------|--
A|-------------------------------------------5--3--3--3--2------------------------|--
D|--0--0-------------0--0-----------------------------------5--5--5h3--5h3--0--0--|--

            
            
Suggest correction
Creating personal tab
Creating personal tab
You can edit any tab online and save it as your Personal.

You can edit, replace or remove any tab part or add personal notes – all changes will be seen only by you.

Personal tabs can be accessed anytime from any device, even offline.
Learn more »
Give kudos to tab author, rate the tab!
1 2 3 4 5
comments
print report bad tab
2 comments total.
0 reply
samuelwestlak1 10 Jan 14, 2017 05:06 PM

ok, I really want to work out this song before it's release, officially, so in the chorus, should it be:
G|--------12\15--10p8h10------------------------------------------------------------------------|--
D|----------------------------5--3--7--5--3--5--------------------------------------------------|--
A|----------------------------------------------5----5--5--5--3--3--3--2------------------------|--
D|--0--0----------------0--0----------------------------------------------5--5--5h3--5h3--0--0--|--

If you are interested in trying to perfect the song fully, I'll be apply to help :D
I know this is going off a shit quality YouTube video, but it's worth a try

0 reply
rkmott1 86 Mar 08, 2017 05:01 PM

Just wanted to say that part of the reason people are struggling to tab this out is because the tuning for this song is bizarre, from listening and watching the reading video that was posted i've manage to tab out the song and have found that the song is actually in D,A,A,D tuning. If you want to see my take on what I think the song is then follow this link :https://tabs.ultimate-guitar.com/r/royal_blood/hook_line_and_sinker_btab.htm

guest
You may want to rate the tab now too:
select rating
Wanna post a correction for this tab? Suggest correction