Oops, an error
Loading. Please wait.

How Did We Get So Dark album bass

version 1
version 1

Album

  • This is a tab to play all the bass and guitar part... Show more

Whole song

  • The first tab of this song and I tried to be as accurate as possible.
  • First tab, exactly how Mike plays it in the exact tuning.
1,657 views 171 this week
no commentswrite comment
1 2 3 4 5
x 3
add to favorites
×
Save as Personal and add changes to this tab that will be seen only by you. Learn more ›
×
You can save this tab as Personal to edit and correct it or add notes. All changes will be seen only by you. Learn more »
launch autoscroll
font size
0
reset
guitar tuner
edit
Autoscroll
slow
fast
+/-
esc
set tempo
stop
About this tab version
This is a tab to play all the bass and guitar parts in this album, using the bass and different mediums to tab the entire album. Was this info helpful? Yes No
Artist: Royal Blood
Album: How Did We Get So Dark?
Year: 2017
Tabbed by: senorheisenberg

Tracklist:
1-How Did We Get So Dark?
2-Lights Out
3-I Only Lie When I Love You
4-She's Creeping
5-Look Like You Know
6-Where Are You Now?
7-Don't Tell
8-Hook, Line & Sinker
9-Hole In Your Heart
10-Sleep

Track 1:How Did We Get So Dark?
Time:3:18
Tuning:C Standard

[Verse]
D#|--------------------------------|
A#|--------------------------------|
F |-7--5-7/9-7-5-7---7---5-7/9-7-5-|
C |--------------------7-----------|

"I saw it coming..."

D#|-----------------------------------------------|
A#|-----------------------------------------------|
F |-----5-7/9-7-5-----5-7/9-7-5-------7-7-5-5-4-4-|
C |-0-0-----------0-7-----------0-0-7-------------|

"How did I..."

[Pre-Chorus]
D#|--------------------------------------------------------------------------------------------------|
A#|----------------------------------------------------------------------------------------------5-5-|
F |-------------------------------/12-/14-12-10-12-------------------------------5-7/9-7-5-6---------|
C |-8-8-8-8-8-4-4-5-5-10-10-10-10------------------0-0-0-8-8-8-8-8-4-4-5-5-0-0-0-------------7-7-----|

"So Dark..."

D#|-----------------|
A#|-----------------|
F |-----------------|
C |-2-2-2-2-8-8-8-8-|

[Chorus]
D#|-------------------------------------------|
A#|-------------------------------------------|
F |-7-7-7-7-7-7-8-9-9-9-9-9-9-----------------|
C |---------------------------8-8-8-8-8-8-8-8-|

"How Did We Get So Dark?"

[Bridge]
D#|---------------------------12b-|
A#|---12-12-12-12-12-12-12-12-----|
F |-------------------------------|
C |-0-----------------------------|

[Outro]
D#|--------------------------------------------------------------|
A#|-10-10-10-9-9-7-7-5-5-5-4-4-2-2-------------------------5-5-5-|
F |--------------------------------3-3-3-2-2-0-0-6-6-6-7-7-------|
C |--------------------------------------------------------------|

D#|------------------12-12-12-11-11-9-9------------------------------|
A#|-10-10-10-9-9-7-7--------------------10-10-10-9-9-7-7---------5-5-|
F |------------------------------------------------------6-6-7-7-----|
C |------------------------------------------------------------------|

Track 2:Lights Out 
Time:3:57
Tuning:Drop D

[Intro]
G|-----------------------------------------------|
D|-----------------------------------------------|
A|-5-5-5-5-5-5-5--5-5-5-5-5-5-5-5--5-5-5-5-5-5-5-|
D|-----------------------------------------------|

[Verse]
G|------------------------------------------------------------|
D|------------------------------------------------------------|
A|-5-5-5-5-5-5-5--5-5-5-5-5-5-5--5-5-5-5-5-5-5--5-5-5-5-5-5-5-|
D|------------------------------------------------------------|

"Every time I'm with it alone..."

G|------------------------------------------------------------|
D|------------------------------------------------------------|
A|-3-3-3-3-3-3-3--3-3-3-3-3-3-3--3-3-3-3-3-3-3--3-3-3-3-3-3-3-|
D|------------------------------------------------------------|

"She picks me up..."

[Pre-Chorus]
G|-------------------------------------------------------------------------------------------------------|
D|-------------------------------------------------------------------------------------------------------|
A|-------------------------------------------------------------------------------------------------------|
D|-8-8-8-8/--8-8-8-8/--9-9-9-9/--9-9-9-9/--8-8-8-8/--8-8-8-8/--5-5-5-5/--5-5-5-5/--8-8-8-8/--8-8-8-8/--5-|
 
"On my toes..."

[Chorus 1]
G|-------------------------------------------|
D|-------------------------------------------|
A|-3-5-5-5-3-5-5-5-3-4-5-3-------------3-3-3-|
D|-------------------------3-3-3-3-3-3-------|

G|------------------------------------------|
D|-----------------3-5-5b-------------------|
A|-3-5-5-5-3-5-5-5--------------------3-3-3-|
D|------------------------3-3-3-3-3-3-------|

"Yeahhhhh..."

[Post Chorus]
G|-------12b-----------------12b----------------12b-----------------12b---|
D|-----------------12/----------------12/-----------------12/-------------|
A|------------------------------------------------------------------------|
D|-0-0-0-----0-0-0-----0-0-0----0-0-0-----0-0-0-----0-0-0-----0-0-0-----0-|

[Chorus 2]
G|------------------------------------------------------------------------------------------------|
D|------------------------------------------------------------------------------------------------|
A|--------------------------5-5-5-5-5-5-7-7-7-----------------------------------------------------|
D|-10-8-8-8-10-8-8-8-10-9-8-------------------10-8-8-8-10-8-8-8-10-9-8-10-10-10-10-10-10-11-11-11-|

[Solo]
G|---12-10----12b-10--12/-------------------------10b-|
D|---------12---------------10-12----------10-12------|
A|--------------------------------11b-----------------|
D|-0----------------------3------------10-------------|

G|---12-10----12b-10-12/---------10b----12b10----|
D|---------12--------------10-12--------------12-|
A|-----------------------------------------------|
D|-0---------------------8-----------10----------|

Track 3:I Only Lie When I Love You
Time:2:50
Tuning:Drop Db

[Part 1]
Gb|-----------------------------------------------------------------------------|
Db|-----------------------------------------------------------------------------|
Ab|-5----------3----5----------3---------------------------------5----------3---|
Db|---0--0-3/5---0----0--0-3/5---0---12/--3-3-3-3-7-7-7-7-7-7-7----0--0-3/5---0-|

[Part 2]
Gb|---------------------------------------|
Db|---------------------------------------|
Ab|---------------8--8b----------/5--5/---|
Db|-5-3-5/6-5--5/-------0--0-3-5--------5-|

Gb|-------------------------5--------|
Db|----------------5-4-3--3----------|
Ab|---------------------------4b-----|
Db|-5-3-5/6-5--5/----------------0-5-|

Gb|---------------------------------------|
Db|---------------------------------------|
Ab|---------------8--8b----------/5--5/---|
Db|-5-3-5/6-5--5/-------0--0-3-5--------5-|

Gb|-------------------------------------------------|
Db|-------------------------------------------------|
Ab|-------------------------------------------------|
Db|-5-3-5/6-5--5/--5-6-7-7--8-8--10-10--11-11-11-11-|

[Part 3]
Gb|--------------------------------------------------------|
Db|--------------------------------------------------------|
Ab|--------------------------------------------------------|
Db|-7-7--8-8--10-10--11-11--7-7/--8-8/--11-11/-14-14-14-14-|

[Part 4]
Gb|------------------------------------------------------------|
Db|------------------------------------------------------------|
Ab|-5---------3----5---------3-5--5---------3----5---------3---|
Db|---0-0-3/5---0----0-0-3/5--------0-0-3/5---0----0-0-3/5---0-|

Track 4:She's Creeping
Time:3:24
Tuning:F Standard

[Verse 1]
G#|-14--16-17-18--------------------------|
D#|---------------18-17-16/---------------|
A#|--------------------------5-5-5-5-5-3/-|
F |---------------------------------------|

"She's Creeping..."

G#|-14--16-17-18-----------------------------|
D#|---------------18-17-16/------------------|
A#|--------------------------5-5-5-5-5-3-3-3-|
F |------------------------------------------|

"Being what you want me to be..."

[Chorus 1]
G#|-------------------------9-11------------------------------12-14/-|
D#|------------------------------10/---------------------------------|
A#|-----------3-4-5------5----------------------3-4-5------5---------|
F |-5--5-4-3---------3-5--------------5--5-4-3---------3-5-----------|

G#|-------------------------5h7p5------------------------------|
D#|-------------------------------7-5--------------------------|
A#|-----------3-4-5------5-----------------------3-4-5------5/-|
F |-5--5-4-3---------3-5---------------5--5-4-3---------3-5----|

[Verse 2]
G#|-14--16-17-18------------------------------|
D#|---------------18-17-16/-------------------|
A#|--------------------------5-5-5-5-5-3-3-3/-|
F |-------------------------------------------|

G#|-14--16-18------------------------------------14--16-17-18------------|
D#|-----------18--18-17-16/------------------------------------18-17-16/-|
A#|--------------------------5-5-5-5-5-5-3-3-3/--------------------------|
F |----------------------------------------------------------------------|

[Bridge]
G#|---------------------------------------------------|
D#|---------------------------------------------------|
A#|-0-0-15-0-15-0-0-15-0-15-0-0-15-0-15-0-0-15-0-15-6-|
F |---------------------------------------------------|

G#|---------------------------------------------------|
D#|-----------------13--------------------------------|
A#|-0-0-15-0-15-0-0----0-15-0-0-15-0-15-0-0-15-0-15-6-|
F |---------------------------------------------------|

[Chorus 2]
G#|-------------------------9-11---------------------------------------------|
D#|------------------------------10/-----------------------------------------|
A#|-----------3-4-5------5----------------------3-4-5------5-x-x-x-x-x-x-x-x-|
F |-5--5-4-3---------3-5--------------5--5-4-3---------3-5-------------------|

G#|-------------------------5h7p5-------------------------------------|
D#|-------------------------------7-5-------------------------5-4-5-4-|
A#|-----------3-4-5------5-----------------------3-4-5------5---------|
F |-5--5-4-3---------3-5---------------5--5-4-3---------3-5-----------|

G#|------------------------------------------------------9-11-------|
D#|-----------------------------------------------------------10-9/-|
A#|-----------3-4-5------5-----------------3-4-5------5-------------|
F |-5--5-4-3---------3-5---0/13--5--5-4-3---------3-5---------------|

G#|-------------------------9-11-----|
D#|------------------------------10/-|
A#|-----------3-4-5------5-----------|
F |-5--5-4-3---------3-5-------------|

[Outro]
G#|---------------------------------------------------|
D#|---------------------------------------------------|
A#|-0-0-15-0-15-0-0-15-0-15-0-0-15-0-15-0-0-15-0-15-6-|
F |---------------------------------------------------|

G#|----------------------------------------------------------------|
D#|-----------------13---------------------------------------------|
A#|-0-0-15-0-15-0-0----0-15-0-0-15-0-15-0-0-15-0-15-6-5-5-5-5-5-3/-|
F |----------------------------------------------------------------|

Track 5:Look Like You Know
Time:3:06
Tuning:Drop Db

[Intro]
Gb|--------------------------------------------------------------------------------------------|
Db|--------------------------------------------------------------------------------------------|
Ab|--------------------------------------------------------------------------------3-3-3-3-3-3-|
Db|-0-0--0-12-0--0-0--0-12-0--0-0--0-12-0--0-0--0-12-0--0-0--0-12-0--3-3-3-3-3-3-3-------------|

[Pre-Chorus]
Gb|-----------------------------------------------------------------------------------------------|
Db|-----------------------------------------------------------------------------------------------|
Ab|-----------------------------------------------------------------------------------------------|
Db|-8-8-8h10p8-5-5-5h7p10-10-10h12p10-11-12-12-12-0-12-8-8-8h10p8-5-5-5h7p10-10-10h12p10-10-11-11-|

[Verse 2]
Gb|----------------------------------------------------------------|
Db|----------------------------------------------------------------|
Ab|----------------------/12-10-8-------------------------/12-10-8-|
Db|-12-0-0-12-0-0-12-0-0----------8-8-8-8-8-8-8-8-8-8-8-8----------|

Gb|---------------------------------------------------------------|
Db|---------------------------------------------------------------|
Ab|---------------------/12-10-8----------------------------------|
Db|-5-5-5-5-5-5-5-5-5-5----------8-8-8-8-8-8-11-11-11-11-11-11-11-|

[Bridge]
Gb|-------------------------------------------------------------|
Db|-------------------------------------------------------------|
Ab|-------------------------------------------------------------|
Db|-0-2-0-3-2-1-0-2-0-3-2-1-0-2-0-3-2-1-0-2-0-3-2-1-0-2-0-3-2-1-|

Gb|---------5-5-5-----------5-5-5-------------------------/9-7---------|
Db|------------------------------------------------------------7-------|
Ab|--------------------------------------------------------------------|
Db|-0-2-0-3-------0-2-0-3-2-------0-2-0-3-2-1-0-2-0-3-2-1--------8-7-5-|

Track 6:Where Are You Now?
Time:2:47
Tuning:Standard

[Intro/Verse]
G|-------------------------------------------------------------------------------------------------|
D|-------------------------------------------------------------------------------------------------|
A|-------------------------------------------------------------------------------------------------|
E|-7/12-12-12-12-12-12--12-12-12-12-12--12-12-12-12-12--12-12-12-12-12-12-12--12-12-12-12-12-12-12-|

G|--------------------------------------------------12b-|
D|-----------------------------------------------12-----|
A|--------------------------------------------14--------|
E|-12-12-12-12-12-12-12--12-12-12-12-12-12-12-----------|

"I was an honest boy, yeah..."

G|------------------------------------------------------------------------------------------------|
D|------------------------------------------------------------------------------------------------|
A|---------------------------------17-17-17-17-17-17--17-17-17-17---------------------12-12-12-12-|
E|-15-15-15-15-15-15--15-15-15-15----------------------------------12-12-12-12-12-12--------------|

"If only luck was on your side"

G|----------------------12b-|
D|-------------------12-----|
A|----------------14--------|
E|-12-12-12-12-12-----------|

G|----------------------------------------------------------------|
D|----------------------------------------------------------------|
A|----------------------------------------------------------------|
E|-15-15-15-15-15-15--15-15-15-15--10-10-10-10-10-10--10-10-10-10-|

"Now it's just a stranger passing by..."

[Chorus]
G|--------------------------------------------------|
D|--------------------------------------------5b----|
A|---------------6----6-7/----------------5-7----7/-|
E|-0-3--0-3-5--5----5-------0-3--0-3-5/7------------|

[Bridge]
G|------------------------------------------------|
D|------------------------------------------------|
A|----------------------------------6-------------|
E|-8-8--8-8-7--5-5--5-5-3--7-7--7-7----0-0--0-4-7-|

"I've tasted every potion..."

G|-----------------------------------------------------|
D|-----------------------------------------------------|
A|-----------------------------------------------------|
E|-8-8--8-8-7--5-5--5-5-3--7-7--7-7-7--7-7-7--7-7-7--7-|

"When I think about it, I get blue..."

G|---------------------------------------------------------------------------------------------------------|
D|---------------------------------------------------------------------------------------------------------|
A|----------------------------------6---------7-5----------------------------------------14-14-14-14-14-14-|
E|-8-8--8-8-7--5-5--5-5-3--7-7--7-7----0-0--0------8-8--8-8-7--5-5--5-5-3--7-7--7-7-7--7-------------------|

"Where Are You Now?"

{Outro]
G|--------------------------------------------------|
D|--------------------------------------------5b----|
A|---------------6----6-7/----------------5-7----7/-|
E|-0-3--0-3-5--5----5-------0-3--0-3-5/7------------|

G|------------------------------------------------|
D|----------------------------5---5-7--------5b---|
A|---------------6----6-7/--7---7--------5-7----7-|
E|-0-3--0-3-5--5----5------------------7----------|

G|------------------------------------------------------------------|
D|---------------------------------------9--------------------------|
A|---------------------------------10-12---12-10-7-10-7----7--------|
E|-12-12-12-12-12-12--12-12-12-12-----------------------10---10-7-0-|

Track 7:Don't Tell
Time:3:38
Tuning:Drop C

[Intro/Chorus]
F|------------------------------------------------------------|
C|-------------------------------5b-5-3-5/--------------------|
G|---0h3p0-3--0h3p0-5--0h3p0-5/---------------0h3p0-3--0h3p0/-|
C|-3----------------------------------------3-----------------|

[Verse 1]
F|--------------------------------------------|
C|--------------------------------------------|
G|----3-5-3-3-3--5-3-3-3---3-5-3-3-3--5h7-3h5-|
C|-0---------------------0--------------------|

G|-----------------------------------|
D|-----------------------------------|
A|----3-5-3-3-3--5-3-3-3---3-5-3-3-3-|
E|-0---------------------0-----------|

[Verse 2]
F|--------------------------------------------|
C|--------------------------------------------|
G|----3-5-3-3-3--5-3-3-3---3-5-3-3-3--5h7-3h5-|
C|-0---------------------0--------------------|

F|---------------------------------------------------|
C|---------------------------------------------------|
G|----10-12-10-10-10--------------3-5-3-3-3----------|
C|-0------------------5-3-3-3--0-------------3h5-2h3-|

F|--------------------------------------------|
C|--------------------------------------------|
G|---------------5-3-3-3---3-5-3-3-3--5h7-3h5-|
C|-0---------------------0--------------------|

F|-----------------------------------|
C|-----------------------------------|
G|---------------5-3-3-3---3-5-3-3-3-|
C|-0---------------------0-----------|

[Bridge]
F|-----------------------------------------------------------------12b12p10h12/-|
C|---------------------------3-------------------------------3------------------|
G|--------------------5--3h5---5-0--------------------5--3h5---5-0--------------|
C|-5--5-8-5-8--8-10-8--------------5--5-8-5-8--8-10-8---------------------------|

[Solo]
F|---------17-----------------------------------------------------------------|
C|-----17b----17b\-------17-15br-15br-------------22---------------5b-5-3-----|
G|------------------3--------------------------19----19/------------------5-3-|
C|-3-3----------------4b---------------0-0-3-0------------0-0-3/12------------|

F|----------------------------------------------------22----21---------------------|
C|---------10----10\---------10--------------------19----19-------------5b-5-3-----|
G|-----/12----12---------/12----12-8-7--------------------------------5--------5-3-|
C|-3-3----------------10----------------0-12-10-12--------------0-0-3--------------|

[Outro]
F|--------------------|
C|--------------------|
G|---0h3p0-3--0h3p0---|
C|-3----------------5-|

Track 8:Hook, Line & Sinker
Time:3:28
Tuning:Drop D

[Intro]
G|--------------------------------------------------------|
D|--------------------------------------------------------|
A|-----------------------------5-4-3-5-4-3-5-4-3-5-3-0-5/-|
D|-5-4-3-5-4-3-5-4-3-5-4-0-5/-----------------------------|

[Verse]
G|------------------------------------------------------------------------------------------|
D|---0----0-3----0----0-3-----0----0------------0----0-3----0----0-3----0----0----0---------|
A|-----3b----------3b-----------3b---3-3-3-4------3b----------3b----------3b---3b---3-0-3-0-|
D|-0-----------0------------0-----------------0-----------0-----------0---------------------|

G|------------------------------------------------------------------------------------------|
D|---0----0-3----0----0-3----0----0-------------0----0-3----0----0-3----0----0----0---------|
A|-----3b----------3b----------3b---3b-3-3-4------3b----------3b----------3b---3b---3-0-3-0-|
D|-0-----------0-----------0------------------0-----------0-----------0---------------------|

G|-----------------------------------------------|
D|---0----0-3----0----0-3----0----0----0---------|
A|-----3b----------3b----------3b---3b---3-0-3-0-|
D|-5-----------3-----------0---------------------|

[Chorus 1]
G|----------5-----------------------------------------------------|
D|-------5b---5br-3-5--------5b-5-3-5-----------------------------|
A|------------------------------------5--3-3-3-3-2----------------|
D|-0--0----------------0--0------------------------5-5-3--5-3-5-3-|

G|----------5----------------------------------------------------------------|
D|-------5b---5br-3-5--------5b-5-3-5----------------------------------------|
A|------------------------------------5--3-3-3-3-2---------------------------|
D|-0--0----------------0--0------------------------5-5--3-5-3--5-3--5-3--5-3-|

[Solo]
G|-------12b--10-12-10-------------------11b-------------------------------|
D|----------------------------10----9--------12/---------------------------|
A|-------------------------------11---10----------3-3-3-3-2----------------|
D|-0--0-----------------0--0--------------------------------5-5-3--5-3-5-3-|

[Chorus 2]
G|------------------------------------------------------------------------------------------------------|
D|------------------------------------------------------------------------------------------------------|
A|------------------------------------------------------------------------------------------------------|
D|-0-0-0-0-3--0-0-0-0-3--8-8-8-8-7--10--10--5-3-5-3--5-5-5-5--3-3-3-3-2--8-8-8-8-7--10--10--5-5-5-5-5-3-|

[Outro]
G|-------------------------------------------------------------------------------5-----7-----5-|
D|---------------------------------------------------------------------------------------------|
A|-----3b-----3b-----3b---------------------3b-----0-----3b------------------------------------|
E|-0-0----0-0----0-0----5-4-3-5-4-3-5-4-0-0----0-0---0-0----5-4-3-5-4-3-5-4--0-0---0-0---0-0---|

G|--------------------------------------------------|
D|--------------------------------------------------|
A|--------------------------------------------------|
D|-5-4-3-5-4-3-5--5-4-3-5-4-3-5--7-6-5-7-6-5-7-6--0-|

Track 9:Hole In Your Heart
Time:3:46
Tuning:Drop B

[Chorus 1]
E |-9-9-9-9-9-9-9-9-----------------------------------------------------------|
B |-----------------8-8-8-8-8-8-8-8------5b---------5b---------5b-------------|
F#|---------------------------------------------------------------------------|
B |----------------------------------2-2----0-2-0-2----0-2-0-2----0-2-0-2-x-0-|

E |--------------------------------------------------------------------------------|
B |-----5b---------5b---------5b------------------5b---------5b---------5b---------|
F#|-3-3----2-3-2-3----2-3-2-3----2-3-2-3-x-2---------------------------------------|
B |-------------------------------------------7-7----5-7-5-7----5-7-5-7----x-7-x-5-|

E |------------------------------9-9-9-9---------|
B |-----5b---------5b---------5b---------8-8-8-8-|
F#|-3-3----2-3-2-3----2-3-2-3--------------------|
B |----------------------------------------------| 

[Breakdown]
E |----------------------------------------------------------------------------------|
B |-----2---2------------------------------------2---2-------------------------------|
F#|-------------6---6-------7---7---9---9----------------6---6-------7---7---9---9---|
B |-2-2---2---4---4---4-5-5---5---7---7---7--2-2---2---4---4---4-5-5---5---7---7---7-| 

E |--------------------------------------------------------------------------------------------|
B |-----2---2----------------------------------------------------------------------------------|
F#|-------------6---6-------7---7---9---9--------10---10----12----12--------7---7---6---6------|
B |-2-2---2---4---4---4-5-5---5---7---7---7--9-9----9----10----10----10-5-5---5---4---4---4--2-|

[Chorus 2]
E |-------------------------------------------------|
B |-------------------------------------------------|
F#|-3-3-3-3-3-3-3-3-3-3-3-3-3-3-3-3-3-3-3-3-3-3-3-3-|
B |-------------------------------------------------|

E |-----2b-----2b-----2b-----2b-----2b-----2b-----1-----1---|
B |---------------------------------------------------------|
F#|-3-3----3-3----2-2----2-2--------------------------------|
B |-----------------------------0-0----0-0----2-2---2-2---2-|

E |-----2b-----2--------2b---2-------2b---2-2-2-2-2-2-|
B |---------------------------------------------------|
F#|-3-3----3-3---3--2-2----2---2----------------------|
B |------------------------------0-0----0-------------|

Track 10:Sleep 
Time:4:17
Tuning:Drop C

[Intro]
F|---------------------------------------|
C|---------3h5-3---5h7-5-----3h5-3---2---|
G|-5---3h5---------------3h5-------5---4-|
C|---0-----------0-----------------------|

"I don't wanna sleep..."

[Pre-Chorus]
F|------------------------------------------------------------------------------------------------|
C|---------3h5---------3h5-----------3h5-3---3-------------3h5---------3h5-----------3h5-3---2----|
G|-----3h5---------3h5-----------3h5-------5---5\------3h5---------3h5-----------3h5-------5---4\-|
C|-8-8---------5-5---------10-10-------------------8-8---------5-5---------10-10------------------|

"But I need some medication..."

[Chorus]
F|--------------------------------------------------------------|
C|--------------------------------------------------------------|
G|-----------------5h8-7-5-------5-3--------------------8-5-5-3-|
C|-8-8-8-7-5-5-5h7---------7-0-0-----8-9-10-10-10p8-7-7---------|

"I can't help myself..."

F|----------------------------------------------------------------|
C|----------------------------------------------------------------|
G|-----------------5h8-7-5-------5-3------------------------------|
C|-8-8-8-7-5-5-5h7---------7-0-0-----8-9-10-10-10p8-3p2-3p2-3p2-0-|

F|---------------------------------------|
C|---------3h5-3---5h7-5-----3h5-3---2---|
G|-5---3h5---------------3h5-------5---4-|
C|---0-----------0-----------------------|

[Bridge]
F|-------------------------------------------------------------------------------------|
C|------------------------------------------------------7p5----------------------------|
G|------------------5-5-5-7-4-4-4\1p0-1p0-------------------8p7-5-5-5-4-3-3-3\---------|
C|-5-5-5-7-8-8-8-8\-----------------------5-5-5-7-8-8-8------------------------3p2-3p2-|

F|---------------------------------------------------------------------|
C|---------------------------------------------------------------------|
G|------------------5-5-5-7-4-4-4\1p0-1p0------------------------------|
C|-5-5-5-7-8-8-8-8\-----------------------5-5-5-7-8-8-8\-3p2-3p2-3p2-0-|

[Solo]
F|---------------------------------------------17------------------------------------------------------------|
C|-------10h12-------11h12----------10h12--17b----15-17\--------10b-------10-------------------21-22-21---19\|
G|------------------------------------------------------------------------------------15p14-15----------22---|
C|-8-8-8-------5-5-5-------10-10-10-----------------------8-8-8-----5-5-5----10-10-10------------------------|

[Outro]
F|--------------------------------------|
C|--------------------------------------|
G|--------------------------------------|
C|-0-0--0-0--0-0--0-0--0-0--0-0--0-0--0-|


************************************

| /   Slide up
| b   Bend
| h   Hammer-on
| p   Pull-off
| x   Dead note
| br  Bend release
| \   Slide down

************************************
Suggest correction
Creating personal tab
Creating personal tab
You can edit any tab online and save it as your Personal.

You can edit, replace or remove any tab part or add personal notes – all changes will be seen only by you.

Personal tabs can be accessed anytime from any device, even offline.
Learn more »
Give kudos to tab author, rate the tab!
1 2 3 4 5
comments
print report bad tab
guest
You may want to rate the tab now too:
select rating
Wanna post a correction for this tab? Suggest correction