Oops, an error
Loading. Please wait.

I Only Lie When I Love You tab

version 1
version 1

Whole song

  • Tabbed this out myself this morning, I made sure t... Show more
  • Unlike the original version, this is played on gui... Show more

Interactive

7,969 views 414 this week
2 commentsread comments
1 2 3 4 5
x 6
add to favorites
×
Save as Personal and add changes to this tab that will be seen only by you. Learn more ›
×
You can save this tab as Personal to edit and correct it or add notes. All changes will be seen only by you. Learn more »
launch autoscroll
font size
0
reset
how to read this tab
guitar tuner
edit
Autoscroll
slow
fast
+/-
esc
set tempo
stop
About this tab version
Tabbed this out myself this morning, I made sure to make is as accurate as I could. Was this info helpful? Yes No
[Verse]
D#|---------------------------------------------------------------------------|
A#|---------------------------------------------------------------------------|
F#|---------------------------------------------------------------------------| x3
C#|---------------------------------------------------------------------------|
G#|5----------3-----------------------------------------5----------3----------|
C#|--0--0-3-5---0-x2----12\3-3--3--3--3---7-7-7-7-7-7-7---0--0-3-5---0--------|

[Chorus]
D#|---------------------------------------------------------------------------|
A#|---------------------------------------------------------------------------|
F#|---------------------------------------------------------------------------|
C#|-----------------------------------------------------------------------10--|
G#|-----------------------------------8b---------5-----------------10-9-8-----|
C#|-------------------5-5-3h5-5b-5------0-0-3-5-----5-5-3h5-5b-5--------------|
   "I only lie when I.."
D#|---------------------------------------------------------------------------|
A#|---------------------------------------------------------------------------|
F#|---------------------------------------------------------------------------|
C#|---------------------------------------------------------------------------|
G#|---------------------------8b---------5------------------------------------|
C#|10b-10b-0--5-5-3h5-5b-5------0-0-3-5-----5-5-3h5-5b-5----------------------|

D#|---------------------------------------------------------------------------|
A#|---------------------------------------------------------------------------|
F#|---------------------------------------------------------------------------|
C#|---------------------------------------------------------------------------|
G#|---------------------------------------------------------------------------|
C#|-5-6-7--7--8--8--10--10--11--11-11-11--------------------------------------|

[Outro] 
(Starting at the end of last chorus)
D#|---------------------------------------------------------------------------|
A#|---------------------------------------------------------------------------|
F#|---------------------------------------------------------------------------|
C#|---------------------------------------------------------------------------|
G#|----------------------------------8b--------5-4-3------------------10b\----|
C#|-------------------5-5-3h5-5b-5-----0-0-3-5-------7-6-5-5-5-3h5-5b---------|
   "I only lie when I love you..."

D#|---------------------------------------------------------------------------|
A#|---------------------------------------------------------------------------|
F#|---------------------------------------------------------------------------|
C#|---------------------------------------------------------------------------|
G#|---------------------------------------------------------------------------|
C#|-5-6-7--7--8--8--10--10--11--11--7--7--8--8--10--10--11--11----------------|

D#|---------------------------------------------------------------------------|
A#|---------------------------------------------------------------------------|
F#|---------------------------------------------------------------------------|
C#|---------------------------------------------------------------------------|
G#|---------------------------------------------------------------------------|
C#|-7--7--8--8--11--11--14--14-14-14------------------------------------------|

D#|---------------------------------------------------------------------------|
A#|---------------------------------------------------------------------------|
F#|---------------------------------------------------------------------------|
C#|---------------------------------------------------------------------------|
G#|5----------5---5----------3-5b----------3---5----------3-------------------|
C#|--0--0-3-5---0---0--0-3-5-------0-0-3-5---0---0--0-3-5---0-----------------|


************************************

| x  Dead note
| \  Slide down
| b  Bend
| h  Hammer-on

************************************

            
            
Suggest correction
Creating personal tab
Creating personal tab
You can edit any tab online and save it as your Personal.

You can edit, replace or remove any tab part or add personal notes – all changes will be seen only by you.

Personal tabs can be accessed anytime from any device, even offline.
Learn more »
comments
print report bad tab
2 comments total.
+3 reply
SystemOfADowny 16 Jun 09, 2017 01:04 PM

I think the only thing I can fault with this is in the verse. I think it should be

G#|5--------3-----------------------------5--------3--------------------------|
C#|-0-0-3-5---0-x2----12\3-3-3-3-3-7777777-0-0-3-5---0----Repeat x3-----------|

Other than that it sounds amazing! And quick, too! Good job!

0 reply
sneakybutterfly1 10 Jun 16, 2017 12:35 PM

Looks good!

guest
Wanna post a correction for this tab? Suggest correction