Oops, an error
Loading. Please wait.
We have Chord Pro version of I Only Lie When I Love You.
It's the closest thing you can get to the original song and it has interactive parts. Check out the tab »
×

I Only Lie When I Love You bass

version 2
version 2

Whole song

  • Entire tab of the studio version of the song.
  • This tab is based off of the studio version using:... Show more

Interactive

5,533 views 216 this week
no commentswrite comment
1 2 3 4 5
x 11
add to favorites
×
Save as Personal and add changes to this tab that will be seen only by you. Learn more ›
×
You can save this tab as Personal to edit and correct it or add notes. All changes will be seen only by you. Learn more »
launch autoscroll
font size
0
reset
guitar tuner
edit
Autoscroll
slow
fast
+/-
esc
set tempo
stop
About this tab version
Entire tab of the studio version of the song. Was this info helpful? Yes No
[Intro] 
(0:00)
F#|----------------------------------------------------------------------------|
C#|----------------------------------------------------------------------------|
G#|--5----------3-----5----------3------------------------------5----------3---|
C#|----0--0-3-5---0-----0--0-3-5---0---/3-3-3-3--7-7-7-7-7-7-7----0--0-3-5---0-|

[Verse] 
(0:16)
F#|----------------------------------------------------------------------------|
C#|----------------------------------------------------------------------------|  (2x)
G#|--5----------3-----5----------3------------------------------5----------3---|
C#|----0--0-3-5---0-----0--0-3-5---0---/3-3-3-3--7-7-7-7-7-7-7----0--0-3-5---0-|

[Chorus] 
(0:47)
F#|----------------------------------------------------------------------------|
C#|---------------------------------------------------------------10-----------|
G#|--------------------8b----------5\----------------------10-9-8--------------|
C#|--5-5--3-5-6--5\-------0--0-3-5-------5-5--3-5-6--5\--------------11v-0-----|

F#|-------------------------------------------------------------------------------------------|
C#|-------------------------------------------------------------------------------------------|
G#|--------------------8b----------5\---------------------------------------------------------|
C#|--5-5--3-5-6--5\-------0--0-3-5-------5-5--3-5-6--5\----5-6-7-7--8-8--10-10--11-11-11-11---|

[Verse] 
(1:18)
F#|----------------------------------------------------------------------------|
C#|----------------------------------------------------------------------------|
G#|--5----------3-----5----------3---------------------------------------------|
C#|----0--0-3-5---0-----0--0-3-5---0---/3-3-3-3--7-7-7-7-7-7-7-----------------|

F#|----------------------------------------------------------------------------|
C#|----------------------------------------------------------------------------|  (2x)
G#|--5----------3-----5----------3------------------------------5----------3---|
C#|----0--0-3-5---0-----0--0-3-5---0---/3-3-3-3--7-7-7-7-7-7-7----0--0-3-5---0-|

[Chorus] 
(2:01)
F#|----------------------------------------------------------------------------|
C#|---------------------------------------------------------------10-----------|
G#|--------------------8b----------5\----------------------10-9-8--------------|
C#|--5-5--3-5-6--5\-------0--0-3-5-------5-5--3-5-6--5\--------------11v-0-----|

F#|---------------------------------------------------------------------------------------|
C#|-----------------------------------------------------5\--------------------------------|
G#|--------------------8b----------5-4-3--------------------------------------------------|
C#|--5-5--3-5-6--5\-------0--0-3-5-------6--5-5--3-5-6--------5-6-7-7--8-8--10-10--11-11--|

[Outro] 
(2:32)
F#|---------------------------------------------------------------------------|
C#|---------------------------------------------------------------------------|
G#|---------------------------------------------------------------------------|
C#|--7-7--8-8--10-10--11-11--7-7--8-8--11-11--14--14-14\----------------------|

F#|---------------------------------------------------------------------------|
C#|---------------------------------------------------------------------------|
G#|--5----------3---5----------3-5----------3---5----------3------------------|
C#|----0--0-3-5---0---0--0-3-5-----0--0-3-5---0---0--0-3-5---0----------------|


************************************

| b   Bend
| /   Slide up
| \   Slide down
| v   Vibrato

************************************

            
            
Suggest correction
Creating personal tab
Creating personal tab
You can edit any tab online and save it as your Personal.

You can edit, replace or remove any tab part or add personal notes – all changes will be seen only by you.

Personal tabs can be accessed anytime from any device, even offline.
Learn more »
comments
print report bad tab
guest
You may want to rate the tab now too:
select rating
Wanna post a correction for this tab? Suggest correction