Oops, an error
Loading. Please wait.
We have Chord Pro version of Lights Out.
It's the closest thing you can get to the original song and it has interactive parts. Check out the tab »
×

Lights Out bass

version 2
version 2

Whole song

  • Contains full bass part and solo.
  • If you have any improvements then post comment. : ).
  • This uses the tuning seen in the official music vi... Show more
  • 100% transcribed from their performance on Kimmel:... Show more

Interactive

1,180 views 24 this week
3 commentsread comments
1 2 3 4 5
x 3
add to favorites
×
Save as Personal and add changes to this tab that will be seen only by you. Learn more ›
×
You can save this tab as Personal to edit and correct it or add notes. All changes will be seen only by you. Learn more »
launch autoscroll
font size
0
reset
guitar tuner
edit
Autoscroll
slow
fast
+/-
esc
set tempo
stop
About this tab version
If you have any improvements then post comment. : ). Was this info helpful? Yes No
[Intro]
F|-----------------|
C|-----------------|  x3
G|--7-7-7-7-7-7-7--|
D|-----------------|

[Verse]
F|-----------------|--------------|             
C|-----------------|  x4        --|
G|--7-7-7-7-7-7-7--|            --|
D|-----------------|            --|
                                  |  x2
F|-----------------|            --|
C|-----------------|  x4        --|
G|--5-5-5-5-5-5-5--|            --|
D|-----------------|--------------|

F|----------------------|
C|----------------------|
G|----------------------|
D|--8-8-8-8\--8-8-8-8\--|

F|----------------------|
C|----------------------|
G|----------------------|
D|--9-9-9-9\--9-9-9-9\--|

F|----------------------|
C|----------------------|
G|----------------------|
D|--8-8-8-8\--8-8-8-8\--|

F|----------------------|
C|----------------------|
G|----------------------|
D|--5-5-5-5\--5-5-5-5\--|

F|----------------------|
C|----------------------|
G|----------------------|
D|--8-8-8-8\--8-8-8-8\--|

F|------------------|
C|------------------|
G|------------------|
D|--5~~~~~~~~~------|

[Chorus]
F|----------------------------|
C|----------------------------|
G|--5-7-7-7-5-7-7-7-5-7-5-----|
D|------------------------5---|

F|----------------|
C|----------------|
G|-------5-5-5-5--|
D|--3-3-3---------|

F|----------------------------|
C|------------------5-7-7b----|
G|--5-7-7-7-5-7-7-7-----------|
D|----------------------------|

F|----------------|
C|----------------|
G|-------5-5-5-5--|
D|--3-3-3---------|

F|----------------------------|
C|----------------------------|
G|--5-7-7-7-5-7-7-7-5-7-5-----|
D|------------------------5---|

F|----------------|
C|----------------|
G|-------5-5-5-5--|
D|--3-3-3---------|

F|----------------------------|
C|------------------5-7-7b----|
G|--5-7-7-7-5-7-7-7-----------|
D|----------------------------|

F|----------------|
C|----------------|
G|-------5-(Hold)-|
D|--3-3-3---------|

[Bridge]
F|-----------14b------|
C|--------------------|
G|--------------------|
D|--0-0--0------------|

F|--------------------|
C|-----------13\------|
G|--------------------|
D|--0-0--0------------|

F|-----------14b------|
C|--------------------|
G|--------------------|
D|--0-0--0------------|

F|---------------------|
C|------------14~~~~~~~|
G|---------------------|
D|--0-0--0-------------|

F|-----------14b------|
C|--------------------|
G|--------------------|
D|--0-0--0------------|

F|--------------------|
C|-----------13\------|
G|--------------------|
D|--0-0--0------------|

F|-----------14b------|
C|--------------------|
G|--------------------|
D|--0-0--0------------|

F|--------------------|
C|--------------------|
G|--------------------|
D|--0\----------------|

[Verse]
F|-------------------------------|
C|-----------------  x4        --|
G|--7-7-7-7-7-7-7--            --|
D|-----------------            --|
                                 |  x2
F|-----------------            --|
C|-----------------  x4        --|
G|--5-5-5-5-5-5-5--            --|
D|-------------------------------| 

F|----------------------|
C|----------------------|
G|----------------------|
D|--8-8-8-8\--8-8-8-8\--|

F|----------------------|
C|----------------------|
G|----------------------|
D|--9-9-9-9\--9-9-9-9\--|

F|----------------------|
C|----------------------|
G|----------------------|
D|--8-8-8-8\--8-8-8-8\--|

F|----------------------|
C|----------------------|
G|----------------------|
D|--5-5-5-5\--5-5-5-5\--|

F|----------------------|
C|----------------------|
G|----------------------|
D|--8-8-8-8\--8-8-8-8\--|

F|----------------------|
C|----------------------|
G|----------------------|
D|--9-9-9-9\--9-9-9-9\--|

F|----------------------|
C|----------------------|
G|----------------------|
D|--8-8-8-8\--8-8-8-8\--|

F|------------------|
C|------------------|
G|------------------|
D|--5~~~~~~~~~------|

[Chorus]
F|----------------------------|
C|----------------------------|
G|--5-7-7-7-5-7-7-7-5-7-5-----|
D|------------------------5---|

F|----------------|
C|----------------|
G|-------5-5-5-5--|
D|--3-3-3---------|

F|----------------------------|
C|------------------5-7-7b----|
G|--5-7-7-7-5-7-7-7-----------|
D|----------------------------|

F|----------------|
C|----------------|
G|-------5-5-5-5--|
D|--3-3-3---------|

F|----------------------------|
C|----------------------------|
G|--5-7-7-7-5-7-7-7-5-7-5-----|
D|------------------------5---|

F|----------------|
C|----------------|
G|-------5-5-5-5--|
D|--3-3-3---------|

F|----------------------------|
C|------------------5-7-7b----|
G|--5-7-7-7-5-7-7-7-----------|
D|----------------------------|

F|----------------|
C|----------------|
G|-------5-5-5-5--|
D|--3-3-3---------|

F|--------------------------|----------------|
C|--------------------------|----------------|
G|--5-3-3-3-5-3-3-3--3-5-3--|----------------|
D|------------------------5-|-5-5-5/-7-7-7---|

F|--------------------------|-----------------|
C|--------------------------|-----------------|
G|--5-3-3-3-5-3-3-3--3-5-3--|-5-5-5-5-5/-7-7--|
D|------------------------5-|-----------------|

Break

[Solo]
F|-----14h-12----14b-12-14--------------- |
C|-----------14------------            -- |
G|-------------------------            -- |
D|---0---------------------            -- |
                                          |
F|-------------------------               |
C|----12-14----------------               |
G|----------12-------------               |
D|--3----------------------               |
                                          |
F|----------12-------------               |
C|--0--12-14---------------               |
G|-------------------------               |
D|-------------------------               |
                                          |  x4
F|-----14-12----14b-12-14--               |
C|-----------14------------               |
G|-------------------------               |
D|--0----------------------               |
                                          |
F|----------12-------------               |
C|----12-14----------------               |
G|-------------------------               |
D|--8----------------------               |
                                          |
F|----14b-14h-12-----------            -- |
C|--0------------14--------            -- |
G|-------------------------            -- |
D|--------------------------------------- |

[Chorus]
F|----------------------------|
C|----------------------------|
G|--5-7-7-7-5-7-7-7-5-7-5-----|
D|------------------------5---|

F|----------------|
C|----------------|
G|-------5-5-5-5--|
D|--3-3-3---------|

F|----------------------------|
C|------------------5-7-7b----|
G|--5-7-7-7-5-7-7-7-----------|
D|----------------------------|

F|----------------|
C|----------------|
G|-------5-5-5-5--|
D|--3-3-3---------|

F|----------------------------|
C|----------------------------|
G|--5-7-7-7-5-7-7-7-5-7-5-----|
D|------------------------5---|

F|----------------|
C|----------------|
G|-------5-5-5-5--|
D|--3-3-3---------|

F|----------------------------|
C|------------------5-7-7b----|
G|--5-7-7-7-5-7-7-7-----------|
D|----------------------------|

F|----------------|
C|----------------|
G|-------5-5-5-5--|
D|--3-3-3---------|

[Ending]
F|-----------14b------|
C|--------------------|
G|--------------------|
D|--0-0--0------------|

F|--------------------|
C|-----------13\------|
G|--------------------|
D|--0-0--0------------|

F|-----------14b------|
C|--------------------|
G|--------------------|
D|--0-0--0------------|

F|---------------------|
C|------------14~~~~~~~|
G|---------------------|
D|--0-0--0-------------|

F|-----------14b------|
C|--------------------|
G|--------------------|
D|--0-0--0------------|

F|--------------------|
C|-----------13\------|
G|--------------------|
D|--0-0--0------------|

F|-----------14b------|
C|--------------------|
G|--------------------|
D|--0-0--0------------|

F|----------------------------------------------|
C|----------------------------------------------|
G|--10-10--10-10-10-10-10-10-10-10-10-10-10-10--|
D|----------------------------------------------|

F|------------14b-----|
C|--------------------|
G|--------------------|
D|--0-0--0------------|

F|--------------------|
C|-----------13\------|
G|--------------------|
D|--0-0--0------------|


F|--0/----------------|
C|--0/----------------| (Use the BOSS Harmonist)
G|--0/----------------|
D|--0/--------------0-|


************************************

| \  Slide down
| ~  Vibrato
| b  Bend
| h  Hammer-on
| /  Slide up

************************************

            
            
Suggest correction
Creating personal tab
Creating personal tab
You can edit any tab online and save it as your Personal.

You can edit, replace or remove any tab part or add personal notes – all changes will be seen only by you.

Personal tabs can be accessed anytime from any device, even offline.
Learn more »
Give kudos to tab author, rate the tab!
1 2 3 4 5
comments
print report bad tab
3 comments total.
0 reply
aflanagan12 20 Apr 14, 2017 10:04 AM

This is write for the tuning, but Im 90% sure from the video hes playing it in drop D

guest
You may want to rate the tab now too:
select rating
Wanna post a correction for this tab? Suggest correction