Oops, an error
Loading. Please wait.
We have Chord Pro version of Lights Out.
It's the closest thing you can get to the original song and it has interactive parts. Check out the tab »
×

Lights Out bass

version 4
version 4

Whole song

  • Contains full bass part and solo.
  • If you have any improvements then post comment. : ).
  • This uses the tuning seen in the official music vi... Show more
  • 100% transcribed from their performance on Kimmel:... Show more

Interactive

193 views 3 this week
no commentswrite comment
1 2 3 4 5
1 last vote to show rating
add to favorites
×
Save as Personal and add changes to this tab that will be seen only by you. Learn more ›
×
You can save this tab as Personal to edit and correct it or add notes. All changes will be seen only by you. Learn more »
launch autoscroll
font size
0
reset
guitar tuner
backing track
0:00
0:00
edit
Autoscroll
slow
fast
+/-
esc
set tempo
stop
This tab was 100% transcribed from their live performance on Kimmel:

https://www.youtube.com/watch?v=nJu86rLxGi4

[Intro]           [Verse]
(0:00)            (0:04)
  3x               4x             4x               4x              4x
F|---------------|---------------|---------------|---------------|---------------|
C|---------------|---------------|---------------|---------------|---------------|
G|-7-7-7-7-7-7-7-|-7-7-7-7-7-7-7-|-5-5-5-5-5-5-5-|-7-7-7-7-7-7-7-|-5-5-5-5-5-5-5-|
D|---------------|---------------|---------------|---------------|---------------|

[Pre-Chorus]
(0:25)
F|---------------------------------------------------------------------------------------------------|
C|---------------------------------------------------------------------------------------------------|
G|---------------------------------------------------------------------------------------------------|
D|-8-8-8-8\-8-8-8-8\--5-5-5-5\-5-5-5-5\--8-8-8-8\-8-8-8-8\--5-5-5-5\-5-5-5-5\|--8-8-8-8\-8-8-8-8--5\-|

[Chorus 1]
(0:41)
F|-----------------------------------------------------------------------------------------------------------|
C|---------------------------------------------------------------------------5-7-7b--------------------------|
G|-5h7--7-7-5h7--7-7--5-7-6-5-------------5-5--5--5-5-5--5h7-7-7--5h7-7-7--7--------------------5-5--5--5-5-5|
D|----------------------------3--3--3-3-3-------------------------------------------3--3--3-3-3--------------|

F|-----------------------------------------------------------------------------------------------------------|
C|---------------------------------------------------------------------------5-7-7b--------------------------|
G|-5h7--7-7-5h7--7-7--5-7-6-5-------------5-5--5--5-5-5--5h7-7-7--5h7-7-7--7--------------------5------------|
D|----------------------------3--3--3-3-3-------------------------------------------3--3--3-3-3--------------|

[Post-Chorus]
(1:02)
NOTE: if you do not have a whammy pedal, you can pre-bend the notes labelled '14W,' hit the string, & then 
bring the string back down to its original position/note.
F|--------14b------------------------14b--------------------------14b-------------------------14b----|
C|----------------------14W<--------------------------14~-----------------------14W<-----------------|
G|---------------------------------------------------------------------------------------------------|
D|-0--0-0--------0--0-0-------0--0-0----------0--0-0-------0--0-0--------0--0-0--------0--0-0------0-|

[Verse]
[Pre-Chorus]

[Chorus 2]
F|-----------------------------------------------------------------------------------------------------------|
C|---------------------------------------------------------------------------5-7-7b--------------------------|
G|-5h7--7-7-5h7--7-7--5-7-6-5-------------5-5--5--5-5-5--5h7-7-7--5h7-7-7--7--------------------5-5--5--5-5-5|
D|----------------------------3--3--3-3-3-------------------------------------------3--3--3-3-3--------------|

F|-----------------------------------------------------------------------------------------------------------|
C|---------------------------------------------------------------------------5-7-7b--------------------------|
G|-5h7--7-7-5h7--7-7--5-7-6-5-------------5-5--5--5-5-5--5h7-7-7--5h7-7-7--7--------------------5-5--5--5-5-5|
D|----------------------------3--3--3-3-3-------------------------------------------3--3--3-3-3--------------|

[Pre-Bridge]
(2:17)
F|-----------------------------------------------------------------------------|
C|-----------------------------------------------------------------------------|
G|-----------------------------------------------------------------------------|
D|-10--8-8--8-10--8-8--8--8-10-9-8--5---5---5---5--5---5---7---7---7---7---7---|

F|-----------------------------------------------------------------------------|
C|-----------------------------------------------------------------------------|
G|-----------------------------------------------------------------------------|
D|-10--8-8--8-10--8-8--8--8-10-9-8--10--10--10--10-10--10--11--11--11--11--11--|

[Bridge]
(2:33)
3x
F|---14p12----14b-12~-14s----------------------12b----14p12----14b-12~-14s----------12-----14b-12-----|
C|---------14----------------12h14-----0--12h14-------------14-----------------12h14----0---------14b-|
G|---------------------------------12b----------------------------------------------------------------|
D|-0----------------------3-------------------------0-----------------------8-------------------------|

[Chorus 1]

[Outro]
(3:37)
F|--------14b----------------------14b--------------------14b--------------------14b-------------------------|
C|--------------------14W<---------------------14~-------------------14W<------------------------------------|
G|-----------------------------------------------------------------------------------------------------------|
D|-0--0-0------0--0-0-------0--0-0------0--0-0-----0--0-0-----0--0-0------0--0-0-----15-15-15-15-15-15-15-15-|

F|--------14b(16)-------------------------|
C|------------------------14W<------------|
G|------------------------------7W>>>-----|
D|-0--0-0----------0--0-0--------------0--|









            
            
Suggest correction
Creating personal tab
Creating personal tab
You can edit any tab online and save it as your Personal.

You can edit, replace or remove any tab part or add personal notes – all changes will be seen only by you.

Personal tabs can be accessed anytime from any device, even offline.
Learn more »
Give kudos to tab author, rate the tab!
1 2 3 4 5
comments
print report bad tab
guest
You may want to rate the tab now too:
select rating
Wanna post a correction for this tab? Suggest correction