Oops, an error
Loading. Please wait.

Little Monster bass

version 2
version 2

Whole song

  • In this song the player uses pedals to sound like ... Show more
  • This tab is a bit more detailed and includes the s... Show more

Interactive

1,402 views 15 this week
no commentswrite comment
1 2 3 4 5
2 more votes to show rating
add to favorites
×
Save as Personal and add changes to this tab that will be seen only by you. Learn more ›
×
You can save this tab as Personal to edit and correct it or add notes. All changes will be seen only by you. Learn more »
launch autoscroll
font size
0
reset
guitar tuner
edit
Autoscroll
slow
fast
+/-
esc
set tempo
stop
About this tab version
In this song the player uses pedals to sound like he is playing both guitar and bass.Listen to official song to know which part is guitar and bass sound and which is guitar sound only. www.youtube.com/watch?v=ere2Mstl8ww. Was this info helpful? Yes No
[Intro riff]

F|------|----------------------------------------------------------------------|
C|------|-----5p3---------5p3-5p3----------------------------------------------|
G|------|----------------------------------------------------------------------|
C|-12\--|-0-0-----0---0-0------------------------------------------------------|(x4)


[Verse 1]

F|-------------------------------------------------------------------------------|
C|------------------------5p3---------5p3-5p3-----5p3---------5p3-5p3------------|
G|-----let ring------------------------------------------------------------------|
C|--3------------12\--0-0-----0---0-0---------0-0-----0---0-0--------------------|(x4)


[Chorus 1]

F|-----------------------------------------------------------------------------|
C|-----------------------------------------------------------------------------|
G|-----------------------------------------------------------------------------|
C|--8-8--10---5--5---3h5-3h5--3-3--5--0----0------0---0------------------------|
                                                                               (x2)
F|-----------------------------------------------------------------------------|
C|-----------------------------------------------------------------------------|
G|-----------------------------------------------------------------------------|
C|--8-8--10---5--5---3h5-3h5--3-3--5--0----0------/12---15--12\----------------|

[Verse 2]

F|--------------12fb-r12p10------------------------------------------------------|
C|--------------------------12-----5p3---------5p3-5p3-----5p3---------5p3-5p3---|
G|-----let ring------------------------------------------------------------------|
C|--3--------------------------0-0-----0---0-0---------0-0-----0---0-0-----------|

F|-------------------------------------------------------------------------------|
C|------------------------5p3---------5p3-5p3-----5p3---------5fb--5p3-----------|
G|-----let ring--------------------------------------------------------5-3-------|
C|--3------------12\--0-0-----0---0-0---------0-0-----0--------------------------|

F|-------------------------------------------------------------------------------|
C|------------------------5p3---------5p3-5p3-----5p3---------5p3-5p3------------|
G|-----let ring------------------------------------------------------------------|
C|--3------------12\--0-0-----0---0-0---------0-0-----0---0-0--------------------|

F|----------------------------|
C|----------------------------|
G|-------------let ring-------|
C|-10--12\--7-----------------|


[Chorus 2]

F|-----------------------------------------------------------------------------|
C|-----------------------------------------------------------------------------|
G|-----------------------------------------------------------------------------|
C|--8-8--10---5--5---3h5-3h5--3-3--5--0----0------0---0------------------------|
                                                                               (x2)
F|-----------------------------------------------------------------------------|
C|-----------------------------------------------------------------------------|
G|-----------------------------------------------------------------------------|
C|--8-8--10---5--5---3h5-3h5--3-3--5--0----0------/12---15--12\----------------|

[Solo]

F|------12p10--------------------------12p10------------------------12p10-----------------------|
C|------------12-12-10h12p10-----------------12-12-10h12p10---------------12-12-10h12p10--------|
G|---------------------------12-----------------------------12---------------------------12-----|
C|--0-0--------------------------10-10--------------------------9-9-----------------------------|

F|--------12p10-------------10------------12fb-r12-10h12p10--------------|
C|--------------12-12-10h12----12------12-------------------12-----------|
G|-----------------------------------------------------------------------|
C|----8-8--------------------------0-0--------------------------10-10----|


F|--------------------------------------10----10-14-10------12/14-----------------|
C|--10-12/14--12-10-12-10---------12-12----12---------------------12--10h12hb-r12-|
G|------------------------12------------------------------------------------------|
C|----------------------------9-9-----------------------8-8-----------------------|

F|--------------------------------------------------------------------------------|*
C|--------------------------------------------------------------------------------|
G|--------------------------------------------------------------------------------|
C|--5hb-r5-3-0--12\---------------------------------------------------------------|

[Palm Mute]

F|---------------------------------------------------------------------|
C|------5p3--------5p3-5p3---------------------------------------------|
G|--------------------------x4-----------------------------------------|
C|--0-0-----0--0-0-----------------------------------------------------|

F|---------------------------------------------------------------------|
C|---------------------------------------------------------------------|
G|---------------------------------------------------------------------|
C|--8-8--10---5--5---3h5-3h5--3-3--5--0----0------0---0----------------|

F|---------------------------------------------------------------------|
C|---------------------------------------------------------------------|
G|---------------------------------------------------------------------|
C|--8-8--10---5--5---3h5-3h5--5hb--5-3-/12--12--10--12--10--7\---------|

[Chorus Riff]

F|-----------------------------------------------------------------------------|
C|-----------------------------------------------------------------------------|
G|-----------------------------------------------------------------------------|
C|--8-8--10---5--5---3h5-3h5--3-3--5--0----0------0---0------------------------|
                                                                                    

F|-----------------------------------------------------------------------------|
C|-----------------------------------------------------------------------------|
G|-----------------------------------------------------------------------------|
C|--8-8--10---5--5---3h5-3h5--3-3--5--0----0------/12---15--12\----------------|


F|-----------------------------------------------------------------------------|
C|-----------------------------------------------------------------------------|
G|-----------------------------------------------------------------------------|
C|--8-8--10---5--5---3h5-3h5--3-3--5--0----0------0---0------------------------|
                                                                                    

F|-----------------------------------------------------------------------------|
C|-----------------------------------------------------------------------------|
G|-----------------------------------------------------------------------------|
C|--8-8--10---5--5---3h5-3h5--3-3--5\------------------------------------------|

[Drum Fill]

[Outro riff]

F|---------------------------------------------------------------------|
C|---------------------------------------------------------------------|
G|----------/5---5-3-5-3-0---------------------------------------------|
C|--5hb--5-3----------------5hb--5-3-0-----0---0--0--------------------|(x3)

F|---------------------------------------------------------------------|
C|---------------------------------------------------------------------|
G|----------/5---5-3-5-3-0---------------------------------------------|
C|--5hb--5-3----------------5hb--5-3\----------------------------------|


************************************

| h   Hammer-on
| p   Pull-off
| r   Release
| b   Bend
| hb  Half bend
| /   Slide up
| \   Slide down

************************************

            
            
Suggest correction
Creating personal tab
Creating personal tab
You can edit any tab online and save it as your Personal.

You can edit, replace or remove any tab part or add personal notes – all changes will be seen only by you.

Personal tabs can be accessed anytime from any device, even offline.
Learn more »
Give kudos to tab author, rate the tab!
1 2 3 4 5
comments
print report bad tab
guest
You may want to rate the tab now too:
select rating
Wanna post a correction for this tab? Suggest correction