Oops, an error
Loading. Please wait.

Little Monster bass

version 3
version 3

Whole song

  • In this song the player uses pedals to sound like ... Show more
  • This tab is a bit more detailed and includes the s... Show more

Interactive

322 views 24 this week
no commentswrite comment
1 2 3 4 5
3 more votes to show rating
add to favorites
×
Save as Personal and add changes to this tab that will be seen only by you. Learn more ›
×
You can save this tab as Personal to edit and correct it or add notes. All changes will be seen only by you. Learn more »
launch autoscroll
font size
0
reset
guitar tuner
edit
Autoscroll
slow
fast
+/-
esc
set tempo
stop
About this tab version
This tab is a bit more detailed and includes the solo however the chorus has been simplified a little. Was this info helpful? Yes No
This song is played on bass but can be played on guitar too in the same way

[Intro]
F|--------------------------|
C|-------3-5--------5-3-5-3-|
G|-----------5~-5-5---------| x4
C|---0-0--------------------|

[Verse]
F|-------------------------------------------------------------------------|
C|--3---------------------------3-5--------5-3-5-3------3-5--------5-3-5-3-|
G|--3-------------------------------5~-5-5------------------5~-5-5---------| x4
C|--3-(hold)-------------12/0-0---------------------0-0--------------------|

[Chorus]
F|-----------------------------|-------------------------------|
C|---8-8---10/5--3--5-5--3--7--|---8-8---10/5--3--5-5--3/7--0--|
G|---8-8---10/5--3--5-5--3--7--|---8-8---10/5--3--5-5--3/7--0--| X2
C|---8-8---10/5--3--5-5--3--7--|---8-8---10/5--3--5-5--3/7--0--|

[Verse]
F|-------------------------------------------------------------------------|
C|--3---------------------------3-5--------5-3-5-3------3-5--------5-3-5-3-|
G|--3-------------------------------5~-5-5------------------5~-5-5---------| x4
C|--3-(hold)-------------12/0-0---------------------0-0--------------------|

(variation on the line 'where've you been hiding...')

F|---------------------------------------------------------------------------|
C|--3---------------------------3-5--------5-3-5-3-------3-5-----5b--5-3-----|
G|--3-------------------------------5~-5-5-------------------5~---------5-3--|
C|--3-(hold)-------------12/0-0----------------------0-0---------------------|

[leading to chorus on line 'what we discover']
F|-------------------------------|
C|---8----------------------5----|
G|---8----------------------5----|
C|---8-(hold then slide)----5----|

[Chorus]
F|-----------------------------|-------------------------------|
C|---8-8---10/5--3--5-5--3--7--|---8-8---10/5--3--5-5--3/7--0--|
G|---8-8---10/5--3--5-5--3--7--|---8-8---10/5--3--5-5--3/7--0--| X2
C|---8-8---10/5--3--5-5--3--7--|---8-8---10/5--3--5-5--3/7--0--|

[Solo]
F|-------12-10---------------------|-----12-10-----------------------|------12-10--------------------|
C|-12-12-------12~-12-10-12-10-----|-10-10-------12~-12-10-12-10-----|--9-9------12~-12-10-12-10-----|
G|-12-12-----------------------12--|-10-10-----------------------12--|--9-9----------------------12--|
C|-12-12---------------------------|-10-10---------------------------|--9-9--------------------------|

F|------12-10-------------10----|-------10-12b--10h12p10-----|------------------------------|
C|-8-8-------12~-12-10-12---12--|-12-12------------------12--|-10-10--------9---------------|
G|-8-8--------------------------|-12-12----------------------|-10-10--10-12---12-10-12-10---|
C|-8-8--------------------------|-12-12----------------------|-10-10---------------------12-|

F|-----------------------------|------12b---------------10----|
C|-9-9--10---10-10----10-14-10-|-8-8-------12~-12-10-12---12--|
G|-9-9----12-------12----------|-8-8--------------------------|
C|-9-9-------------------------|-8-8--------------------------|

F|----------------|
C|-7---5---3---0--|
G|-7---5---3---0--|
C|-7---5---3---0--|

[Build up]
F|--------------------------|
C|-------3-5--------5-3-5-3-|
G|-----------5~-5-5---------| x4
C|---0-0--------------------|

F|------------------------------------------------|----------------------------------------------------------|
C|-12-12-10-9----------------10-10-9-7------------|--12-12-10-9----------------10-10-9-12--------------------|
G|-12-12-10-9----------------10-10-9-7------------|--12-12-10-9----------------10-10-9-12--------------------|
C|-12-12-10-9--5h3p5h3h5p3---10-10-9-7--0-0-0-3-0-|--12-12-10-9--5h3p5h3h5p3---10-10-9-12--12h10p12h10p12h10p|

[Chorus]
F|-----------------------------|-------------------------------|-----------------------------|
C|---8-8---10/5--3--5-5--3--7--|---8-8---10/5--3--5-5--3/7--0--|---8-8---10/5--3--5-5--3--7--|
G|---8-8---10/5--3--5-5--3--7--|---8-8---10/5--3--5-5--3/7--0--|---8-8---10/5--3--5-5--3--7--|
C|---8-8---10/5--3--5-5--3--7--|---8-8---10/5--3--5-5--3/7--0--|---8-8---10/5--3--5-5--3--7--|

F|---------------------------------------------------|
C|---8-8---10/5--3--5-5--3/7----------------------0--|
G|---8-8---10/5--3--5-5--3/7----------------------0--| 
C|---8-8---10/5--3--5-5--3/7-(wait for drum fill)-0--|

[Outro]
F|-----------------------------|---------------|       
C|--10--9--7--12--5p0h5p0h5p0--|--5--3--2--0---|
C|--10--9--7--12--5p0h5p0h5p0--|--5--3--2--0---| x3 
C|--10--9--7--12--5p0h5p0h5p0--|--5--3--2--0---|

F|-----------------------------|----------|
C|--10--9--7--12--5p0h5p0h5p0--|--5-3-2---|
G|--10--9--7--12--5p0h5p0h5p0--|--5-3-2---| 
C|--10--9--7--12--5p0h5p0h5p0--|--5-3-2---|


*********************************************************************************************************

~ tremolo
b bend string
p pull off
h hammer on 
/ slide 

*********************************************************************************************************

            
            
Suggest correction
Creating personal tab
Creating personal tab
You can edit any tab online and save it as your Personal.

You can edit, replace or remove any tab part or add personal notes – all changes will be seen only by you.

Personal tabs can be accessed anytime from any device, even offline.
Learn more »
Give kudos to tab author, rate the tab!
1 2 3 4 5
comments
print report bad tab
guest
You may want to rate the tab now too:
select rating
Wanna post a correction for this tab? Suggest correction