Oops, an error
Loading. Please wait.

Look Like You Know tab

version 1
version 1

Whole song

  • Complete tab of the studio version of the song.
  • First tab of its kind. I spent a lot of time writi... Show more
1,312 views 63 this week
2 commentsread comments
1 2 3 4 5
x 4
add to favorites
×
Save as Personal and add changes to this tab that will be seen only by you. Learn more ›
×
You can save this tab as Personal to edit and correct it or add notes. All changes will be seen only by you. Learn more »
launch autoscroll
font size
0
reset
how to read this tab
guitar tuner
edit
Autoscroll
slow
fast
+/-
esc
set tempo
stop
About this tab version
Complete tab of the studio version of the song. Was this info helpful? Yes No
[Intro] 
(0:00)
D#|---------------------------------------------------------------------------|
A#|---------------------------------------------------------------------------|
F#|---------------------------------------------------------------------------|
C#|---------------------------------------------------------------------------| (x2)
G#|---------------------------------------------------------------------------|
C#|--0----0----0--12--0-------------------------------------------------------|

[Verse] 
(0:03)
D#|---------------------------------------------------------------------------|
A#|---------------------------------------------------------------------------|
F#|---------------------------------------------------------------------------|
C#|---------------------------------------------------------------------------| (x3)
G#|---------------------------------------------------------------------------|
C#|--0----0----0--12--0-------------------------------------------------------|

D#|---------------------------------------------------------------------------|
A#|---------------------------------------------------------------------------|
F#|---------------------------------------------------------------------------|
C#|----------------3-3-3-3-3-3------------------------------------------------|
G#|---------------------------------------------------------------------------|
C#|--3-3-3-3-3-3--------------------------------------------------------------|

D#|---------------------------------------------------------------------------|
A#|---------------------------------------------------------------------------|
F#|---------------------------------------------------------------------------|
C#|---------------------------------------------------------------------------| (x3)
G#|---------------------------------------------------------------------------|
C#|--0----0----0--12--0-------------------------------------------------------|

D#|---------------------------------------------------------------------------|
A#|---------------------------------------------------------------------------|
F#|---------------------------------------------------------------------------|
C#|----------------3-3-3-3-3-3------------------------------------------------|
G#|---------------------------------------------------------------------------|
C#|--3-3-3-3-3-3--------------------------------------------------------------|

[Pre-Chorus] 
(0:18)
D#|---------------------------------------------------------------------------|
A#|---------------------------------------------------------------------------|
F#|---------------------------------------------------------------------------|
C#|---------------------------------------------------------------------------|
G#|---------------------------------------------------------------------------|
C#|--8--8--8-10-8\---5--5--5-7-5\---10--10--10-12-10\---12--12--12-14-12\-----|

D#|---------------------------------------------------------------------------|
A#|---------------------------------------------------------------------------|
F#|---------------------------------------------------------------------------|
C#|---------------------------------------------------------------------------|
G#|---------------------------------------------------------------------------|
C#|--8--8--8-10-8\---5--5--5-7-5\---10--10--10-12-10\---11-11\----------------|

[Chorus] 
(0:33)
D#|-------------------------------------------------------------------------------|
A#|-------------------------------------------------------------------------------|
F#|-------------------------------------------------------------------------------|
C#|-------------------------------------------------------------------------------|
G#|--------------------------/12-10-8-----------------------------------\12-10-8--|
C#|--12-0-0--12-0-0--12-0-0------------8--8-8-8-8-8--8-8-8-8-8--8-8-8-8-----------|
                                                                                     (x2)
D#|-------------------------------------------------------------------------------|
A#|-------------------------------------------------------------------------------|
F#|-------------------------------------------------------------------------------|
C#|-------------------------------------------------------------------------------|  
G#|--------------------------\12-10-8---------------------------------------------|
C#|--5-5--0h3-5-5--0h3-5-5-5-----------8-8-8-8-8-8--11-11-11-11-11-11-------------|

[Verse] 
(1:03)
D#|---------------------------------------------------------------------------|
A#|---------------------------------------------------------------------------|
F#|---------------------------------------------------------------------------|
C#|---------------------------------------------------------------------------| (x5)
G#|---------------------------------------------------------------------------|
C#|--0----0----0--12--0-------------------------------------------------------|

D#|---------------------------------------------------------------------------|
A#|---------------------------------------------------------------------------|
F#|---------------------------------------------------------------------------|
C#|----------------3-3-3-3-3-3------------------------------------------------|
G#|---------------------------------------------------------------------------|
C#|--3-3-3-3-3-3--------------------------------------------------------------|

D#|---------------------------------------------------------------------------|
A#|---------------------------------------------------------------------------|
F#|---------------------------------------------------------------------------|
C#|---------------------------------------------------------------------------| (x3)
G#|---------------------------------------------------------------------------|
C#|--0----0----0--12--0-------------------------------------------------------|

D#|---------------------------------------------------------------------------|
A#|---------------------------------------------------------------------------|
F#|---------------------------------------------------------------------------|
C#|----------------3-3-3-3-3-3------------------------------------------------|
G#|---------------------------------------------------------------------------|
C#|--3-3-3-3-3-3--------------------------------------------------------------|

[Pre-Chorus] 
(1:21)
D#|---------------------------------------------------------------------------|
A#|---------------------------------------------------------------------------|
F#|---------------------------------------------------------------------------|
C#|---------------------------------------------------------------------------|
G#|---------------------------------------------------------------------------|
C#|--8--8--8-10-8\---5--5--5-7-5\---10--10--10-12-10\---12--12--12-14-12\-----|

D#|---------------------------------------------------------------------------|
A#|---------------------------------------------------------------------------|
F#|---------------------------------------------------------------------------|
C#|---------------------------------------------------------------------------|
G#|---------------------------------------------------------------------------|
C#|--8--8--8-10-8\---5--5--5-7-5\---10--10--10-12-10\---11-11-11\-------------|

[Chorus] 
(1:37)
D#|-------------------------------------------------------------------------------|
A#|-------------------------------------------------------------------------------|
F#|-------------------------------------------------------------------------------|
C#|-------------------------------------------------------------------------------|
G#|---------------------------------------------------------------------\12-10-8--|
C#|------------------------------------8--8-8-8-8-8--8-8-8-8-8--8-8-8-8-----------|
                                                                                     
D#|-------------------------------------------------------------------------------|
A#|-------------------------------------------------------------------------------|
F#|-------------------------------------------------------------------------------|
C#|-------------------------------------------------------------------------------|  
G#|--------------------------\12-10-8---------------------------------------------|
C#|--5-5--0h3-5-5--0h3-5-5-5-----------8-8-8-8-8-8--11-11-11-11-11-11-------------|

D#|-------------------------------------------------------------------------------|
A#|-------------------------------------------------------------------------------|
F#|-------------------------------------------------------------------------------|
C#|-------------------------------------------------------------------------10----|
G#|--------------------------/12-10-8-----------------------------------\12----8--|
C#|--12-0-0--12-0-0--12-0-0------------8--8-8-8-8-8--8-8-8-8-8--8-8-8-8-----------|
                                                                                     
D#|-------------------------------------------------------------------------------|
A#|-------------------------------------------------------------------------------|
F#|-------------------------------------------------------------------------------|
C#|-------------------------------------------------------------------------------|  
G#|--------------------------\12-10-8-10------------------------------------------|
C#|--5-5--0h3-5-5--0h3-5-5-5--------------11-11-11-11-11-11-11-11-11-11-11-11-----|

[Bridge] 
(2:06)
D#|---------------------------------------------------------------------------|
A#|---------------------------------------------------------------------------|
F#|-----------------------------5-5-5------------5-5-5------------------------|
C#|---------------------------------------------------------------------------|
G#|---------------------------------------------------------------------------|
C#|--0-2-0-3-2-1--(x5)--0-2-0-3--------0-2-0-3-2------------------------------|

D#|---------------------------------------------------------------------------|
A#|---------------------------------------------------------------------------|
F#|---------------------------------------------------------------------------|
C#|----------------------------/14-12-----------------------------------------|
G#|-----------------------------------12--------------------------------------|
C#|--0-2-0-3-2-1--0-2-0-3-2-1------------8-7-5--------------------------------|

[Chorus] 
(2:26)
D#|-------------------------------------------------------------------------------|
A#|-------------------------------------------------------------------------------|
F#|-------------------------------------------------------------------------------|
C#|-------------------------------------------------------------------------------|
G#|--------------------------/12-10-8-----------------------------------\12-10-8--|
C#|--12-0-0--12-0-0--12-0-0------------8--8-8-8-8-8--8-8-8-8-8--8-8-8-8-----------|

D#|-------------------------------------------------------------------------------|
A#|-------------------------------------------------------------------------------|
F#|-------------------------------------------------------------------------------|
C#|-------------------------------------------------------------------------------|  
G#|--------------------------\12-10-8---------------------------------------------|
C#|--5-5--0h3-5-5--0h3-5-5-5-----------8-8-8-8-8-8--11-11-11-11-11-11-------------|

D#|-------------------------------------------------------------------------------|
A#|-------------------------------------------------------------------------------|
F#|-------------------------------------------------------------------------------|
C#|-------------------------------------------------------------------------10----|
G#|--------------------------/12-10-8-----------------------------------\12----8--|
C#|--12-0-0--12-0-0--12-0-0------------8--8-8-8-8-8--8-8-8-8-8--8-8-8-8-----------|
                                                                                     
D#|-------------------------------------------------------------------------------|
A#|-------------------------------------------------------------------------------|
F#|-------------------------------------------------------------------------------|
C#|-------------------------------------------------------------------------------|  
G#|--------------------------\12-10-8---------------------------------------------|
C#|--5-5--0h3-5-5--0h3-5-5-5-----------8-8-8-8-8-8--11-11-11-11-11-11-------------|

[Outro] 
(2:56)
D#|---------------------------------------------------------------------------|
A#|---------------------------------------------------------------------------|
F#|---------------------------------------------------------------------------|
C#|-----------------------------------------/14-12----------------------------|
G#|------------------------------------------------12-------------------------|
C#|--0-2-0-3-2-1--0-2-0-3-2-1--0-2-0-3-2-1------------8-7-5\------------------|


************************************

| h   Hammer-on
| p   Pull-off
| b   Bend
| /   Slide up
| \   Slide down

************************************
Suggest correction
Creating personal tab
Creating personal tab
You can edit any tab online and save it as your Personal.

You can edit, replace or remove any tab part or add personal notes – all changes will be seen only by you.

Personal tabs can be accessed anytime from any device, even offline.
Learn more »
comments
print report bad tab
2 comments total.
0 reply
robbert_olierook 10 Aug 08, 2017 04:17 PM

How does he make the chord sounds in the Chorus?

guest
You may want to rate the tab now too:
select rating
Wanna post a correction for this tab? Suggest correction