Oops, an error
Loading. Please wait.
We have an official Loose Change tab made by UG professional guitarists. Check out the tab »
×
42,316 views 210 this week
9 commentsread comments
1 2 3 4 5
x 24
add to favorites
×
Save as Personal and add changes to this tab that will be seen only by you. Learn more ›
×
You can save this tab as Personal to edit and correct it or add notes. All changes will be seen only by you. Learn more »
launch autoscroll
font size
0
reset
guitar tuner
edit
Autoscroll
slow
fast
+/-
esc
set tempo
stop
Author
Difficulty
intermediate
-------------------------------------------------------------------------------
                             Loose Change - Royal Blood
-------------------------------------------------------------------------------
Tabbed by: RENWICK!!
E-mail: tom@bsar.info

Tuning:EADG

[Intro] (first rift)

G|------------------------------------------------------------------|
D|--------------------11---9----------------------------------------|
A|------------------9--------11----9---9--------12-12-12-12-11-11---|
E|-9---9-------9-12-------------12--------------------------------12|

G|------------------------------------------------------------------|
D|--------------------11---9----------------------------------------|
A|------------------9--------11----9---9--------12-12-12-12-11-11---|
E|-9---9-------9-12-------------12--------------------------------12|


[First Verse]

"Loose change, another penny..."
G|------------------------------------------------------------------|
D|--------------------11---9----------------------------------------|
A|------------------9--------11----9---9--------12-12-12-12-11-11---|
E|-9---9-------9-12-------------12--------------------------------12|

G|------------------------------------------------------------------|
D|--------------------11---9----------------------------------------|
A|------------------9--------11----9---9--------12-12-12-12-11-11---|
E|-9---9-------9-12-------------12--------------------------------12|

G|------------------------------------------------------------------|
D|--------------------11---9----------------------------------------|
A|------------------9--------11----9---9--------12-12-12-12-11-11---|
E|-9---9-------9-12-------------12--------------------------------12|

G|------------------------------------------------------------------|
D|--------------------11---9----------------------------------------|
A|------------------9--------11----9---9--------12-12-12-12-11-11---|
E|-9---9-------9-12-------------12--------------------------------12|

G|-----------------------------------------|
D|-----------------------------------------|
A|-12----------------14--------------------|
E|-----------------------------------------|

[Break] in singing
G|------------------------------------------------------------------|
D|--------------------11---9----------------------------------------|
A|------------------9--------11----9---9--------12-12-12-12-11-11---|
E|-9---9-------9-12-------------12--------------------------------12|

G|-----------------------------------------------------------|
D|--------------------11--14-13------------------------------|
A|------------------9-----------13-15-----------7---7-9---9-9|
E|-9---9-------9-12------------------~13\--------------------|


[Second verse]

G|------------------------------------------------------------------|
D|--------------------11---9----------------------------------------|
A|------------------9--------11----9---9--------12-12-12-12-11-11---|
E|-9---9-------9-12-------------12--------------------------------12|

G|------------------------------------------------------------------|
D|--------------------11---9----------------------------------------|
A|------------------9--------11----9---9--------12-12-12-12-11-11---|
E|-9---9-------9-12-------------12--------------------------------12|

G|------------------------------------------------------------------|
D|--------------------11---9----------------------------------------|
A|------------------9--------11----9---9--------12-12-12-12-11-11---|
E|-9---9-------9-12-------------12--------------------------------12|

G|------------------------------------------------------------------|
D|--------------------11---9----------------------------------------|
A|------------------9--------11----9---9--------12-12-12-12-11-11---|
E|-9---9-------9-12-------------12--------------------------------12|


[Bridge]
(one note every 4 bars)
G|-----------------------------------------------------------------------|
D|-----------------------------------------------------------------------|
A|-----------------------------------------------------------------------|
E|-9---------------------------------9-----------------------------------|

G|-----------------------------------------------------------------------|
D|-----------------------------------------------------------------------|
A|-----------------------------------------------------------------------|
E|-9---------------------------------9-----------------------------------|


[Third Verse]
(new rift)
G|--------9-8-----------------------------------9----------------9-------|
D|------------9-11---9-11-9-11-9-----------------------------------------|
A|-------------------------------11-9-9-9-9---9---7--7-7-9-9-9-9---9-----|
E|-9---9-----------------------------------------------------------------|

G|--------9-8-----------------------------------9----------------9-------|
D|------------9-11---9-11-9-11-9-----------------------------------------|
A|-------------------------------11-9-9-9-9---9---7--7-7-9-9-9-9---9-----|
E|-9---9-----------------------------------------------------------------|

"I wanna double my money..."
G|--------9-8-----------------------------------9----------------9-------|
D|------------9-11---9-11-9-11-9-----------------------------------------|
A|-------------------------------11-9-9-9-9---9---7--7-7-9-9-9-9---9-----|
E|-9---9-----------------------------------------------------------------|

G|--------9-8-----------------------------------9----------------9-------|
D|------------9-11---9-11-9-11-9-----------------------------------------|
A|-------------------------------11-9-9-9-9---9---7--7-7-9-9-9-9---9-----|
E|-9---9-----------------------------------------------------------------|

G|--------9-8-----------------------------------9----------------9-------|
D|------------9-11---9-11-9-11-9-----------------------------------------|
A|-------------------------------11-9-9-9-9---9---7--7-7-9-9-9-9---9-----|
E|-9---9-----------------------------------------------------------------|

G|--------9-8-----------------------------------9----------------9-------|
D|------------9-11---9-11-9-11-9-----------------------------------------|
A|-------------------------------11-9-9-9-9---9---7--7-7-9-9-9-9---9-----|
E|-9---9-----------------------------------------------------------------|

"'Cause all that glitters is gold till the glitter gets sold..."
G|-----------------------------------------------------------------------------------|
D|-----------------------------------------------------------------------------------|
A|--12--12-12-12-12-12-12-12-9--9-9-9-9-9-9-9----------------------------------------|
E|--------------------------------------------9--9-9-9-9-9-9-9-9-9-9-9-9-9-9-9-9-9-9-|

G|-----------------------------------------------------------------------------------|
D|-----------------------------------------------------------------------------------|
A|--12--12-12-12-12-12-12-12-9--9-9-9-9-9-9-9----------------------------------------|
E|--------------------------------------------9--9-9-9-9-9-9-9-9-9-9-9-9-9-9-9-9-9-9-|

G|-----------------------------------------------------------------------------------|
D|-----------------------------------------------------------------------------------|
A|--12--12-12-12-12-12-12-12-9--9-9-9-9-9-9-9----------------------------------------|
E|--------------------------------------------9--9-9-9-9-9-9-9-9-9-9-9-9-9-9-9-9-9-9-|

G|-----------------------------------------------------------------------------------|
D|-----------------------------------------------------------------------------------|
A|--12--12-12-12-12-12-12-12-9--9-9-9-9-9-9-9----------------------------------------|
E|--------------------------------------------9--9-9-9-9-9-9-9-9-9-9-9-9-9-9-9-9-9-9-|


[Outro]

G|-------9-8-------------------------------------------------|
D|-----------9-11---9-11-9-11-9------------------------------|
A|------------------------------11-9-9-9-9--9----------------|
E|-9--9------------------------------------------------------|

*********************************

| /  slide up
| \  slide down
| h  hammer-on
| p  pull-off
| ~  vibrato
| +  harmonic
| x  Mute note

*********************************

            
            
Suggest correction
Creating personal tab
Creating personal tab
You can edit any tab online and save it as your Personal.

You can edit, replace or remove any tab part or add personal notes – all changes will be seen only by you.

Personal tabs can be accessed anytime from any device, even offline.
Learn more »
comments
print report bad tab
9 comments total. Showing first comments.
0 reply
DeafPolka 181 Apr 12, 2015 11:35 AM

Clearly wrong. Wrong octave and wrong tuning (this should be in C# standard as with Blood Hands by Royal Blood, good effort though

+5 reply
doive 246 May 22, 2015 02:02 PM

I think you've dropped a note or two out of your main riff:

Main Riff
G|------------|---------------------|-----------|------------------------|
D|------------|--------11-9---------|-----------|------------------------|
A|------------|------9------11-9----|-9---9-----|-12-12-12-12-12-11------|
E|-9---9------|-9-12-------------12-|-----------|-------------------12-11|

It probably could be played an octave down in C# tuning, but ain't nobody got time for that!

0 reply
peterbirchley 10 May 31, 2016 10:14 AM

Are we listening to the same song here?

guest
You may want to rate the tab now too:
select rating
Wanna post a correction for this tab? Suggest correction