Oops, an error
Loading. Please wait.

Loose Change Spotify Sessions Bass Tab

5,812 views 9 this week
4 commentsread comments
1 2 3 4 5
accurate
x 3
add to favorites
launch autoscroll
font size
0
reset
guitar tuner
Autoscroll
slow
fast
+/-
esc
set tempo
stop
Help us to improve Ultimate-Guitar.com Take our survey!
×
Author
Difficulty
Tuning
intermediate
C# G# C# F# A# D#
h - hammer on          THE SONG:  http://open.spotify.com/track/13kurkVPWg9eJQ5QL6LR5f
p - pull off
/ - slide up
\ - slide down

 Intro 6x
 E-----------------------------------------------|
 B-----------------------------------------------|
 F#----------------5h7-------------3333p2--------|
 C#--0-0-----0h3--------5p3-0-5-5--------3p2-----|

 Small bridge
 E------------------------------------------------|
 B------------------------------------------------|
 F#----------------5h7-------------3333p2---3~-5~-|
 C#--0-0-----0h3--------5p3-0-5-5--------3p2------|

 Back to main riff 1x
 E-----------------------------------------------|
 B-----------------------------------------------|
 F#----------------5h7-------------3333p2--------|
 C#--0-0-----0h3--------5p3-0-5-5--------3p2-----|

 Improv
 E-----------------------------------------------|
 B-----------------------5p4---------------------|
 F#----------------5h7-------5\7-----------------|
 C#--0-0-----0h3-----------------5---3-5---------|

 Back to main riff 3x
 E-----------------------------------------------|
 B-----------------------------------------------|
 F#----------------5h7-------------3333p2--------|
 C#--0-0-----0h3--------5p3-0-5-5--------3p2-----|

 Small bridge
 E-------------------------------------------------|
 B-------------------------------------------------|
 F#----------------5h7-------------3333p2----------|
 C#--0-0-----0h3--------5p3-0-5-5--------3p2-0-----|hold

 E------------------------------------------------|
 B------------------------------------------------|
 F#-----------------------------------------------|
 C#--0-hold------------0--hold--------------------|

Riffage 6x 1st Way

 E-------------------------------------------------|
 B--------5p4---------------------5----5-----------|
 F#-----------5/7-5h7p5h7p5------------------------|
 C#-0-0---------------------7-3-55-3-33-3553-------|

Riffage 6x 2nd Way

 E-------------------------------------------------|
 B--------5p4---2-0h2p0h2p0-----5----5-------------|
 F#-----------5/-----------2-----------------------|
 C#-0-0---------------------3-55-3-33-3553---------|

Finally 4x
 E-------------------------------------------------|
 B-------------------------------------------------|
 F#------------------------------------------------|
 C#-8888888-555555-0000000000000000----------------|

One last riffage

 E-------------------------------------------------|
 B--------5p4---2-0h2p0h2p0-----5----5-------------|
 F#-----------5/-----------2-----------------------|
 C#-0-0---------------------3-55-3-33-3553---------|

Hope you enjoyed it!
Suggest correction
Give kudos to tab author, rate the tab!
1 2 3 4 5
comments
print report bad tab
4 comments total. Showing first comments.
-1 reply
emakin 10 wrote on September 6 2014, 01:54 pm

A bit weird with the tuning since it plays fine in normal drop C (CGCF) but whatever, it works xD

-1 reply
emakin 10 wrote on September 6 2014, 01:59 pm

In drop C (CGCF)

F|----------------------------------|
C|----------------------------------|
G|----------4h6-------------22221---|
C|-1-1---1h4---6p44p1-6-6--------4p3|

0 reply
DeafPolka 181 wrote on April 12 2015, 01:22 pm

The tuning is definitely C# Standard, both this and Blood Hands use this tuning

guest
You may want to rate the tab now too:
select rating
Please do not post tabs as comments. Select "correction" instead!