Oops, an error
Loading. Please wait.
We have an official Loose Change tab made by UG professional guitarists. Check out the tab »
×
628 views 15 this week
no commentswrite comment
1 2 3 4 5
3 more votes to show rating
add to favorites
×
Save as Personal and add changes to this tab that will be seen only by you. Learn more ›
×
You can save this tab as Personal to edit and correct it or add notes. All changes will be seen only by you. Learn more »
launch autoscroll
font size
0
reset
guitar tuner
edit
Autoscroll
slow
fast
+/-
esc
set tempo
stop
This is my first tab, so feel free to add any suggestions you may have. Hope you enjoy it!

C# Tuning (C#, F#, B, E)

~=sustain
/=slide (or slide down the fretboard)
>=eighth rest

Intro:

E |---------------------------------------------
B |---------------------------------------------
F#|-------------5/7---------------3-3-3-3-2----- 
C#|-0-0----0-3-------5-3-0-5-5/--------------3-2  x2

First Verse:

"Loose change..."

E |---------------------------------------------
B |---------------------------------------------
F#|-------------5/7---------------3-3-3-3-2-----
C#|-0-0----0-3-------5-3-0-5-5/--------------3-2  x4

Chorus:

""Cause all that glitters is gold..."

E |--------
B |--------
F#|--------
C#|-8~-10~-

Beginning of the Second Verse:

E |---------------------------------------------
B |---------------------------------------------
F#|-------------5/7---------------3-3-3-3-2-----
C#|-0-0----0-3-------5-3-0-5-5/--------------3-2

E |---------------------------------------------
B |-----------------5-4-------------------------
F#|-------------5/7-----5-7---------------------
C#|-0-0----0-3--------------5/----3-5-5---------


Second Verse:

"Stuck stood still..."

E |---------------------------------------------
B |---------------------------------------------
F#|-------------5/7---------------3-3-3-3-2-----
C#|-0-0----0-3-------5-3-0-5-5/--------------3-2 x4


"'Cause all that glitters is gold..."

E |--------
B |--------
F#|--------
C#|-0~----0~

The Part You've Been Waiting For:

"I wanna double my money..."
E |----------------------------------------------------
B |------5-4--------------------------5-----5-------5--
F#|----------5/7-5-7-5-7-5-----------------------------
C#|-0-0--------------------7-3-5-5------3-3---3-5-5---5 x3

"Yeah, quit playing God on your telephone..."

E |----------------------------------------------------
B |------5-4--------------------------5----------------
F#|----------5/7-5-7-5-7-5-----------------------------
C#|-0-0--------------------7-3-5-5--------3---5--------

"I got love in my tummy..."

E |----------------------------------------------------
B |------5-4--------------------------5-----5-------5--
F#|----------5/7-5-7-5-7-5-----------------------------
C#|-0-0--------------------7-3-5-5------3-3---3-5-5---5 x2


Chorus:

"'Cause all that glitters is gold..."

E |-----------------------------------------------------------
B |-----------------------------------------------------------
F#|-----------------------------------------------------------
C#|->-8-8-8-8-8-8-->-5-5-5-5-5-5-->-0-0-0-0-0-0-->-0-0-0-0-0-0 x4

Ending:

E |--------------------------------
B |------5-4-----------------------
F#|----------5/7-5-7-5-7-5---------
C#|-0-0--------------------7-3-5-5/

            
            
Suggest correction
Creating personal tab
Creating personal tab
You can edit any tab online and save it as your Personal.

You can edit, replace or remove any tab part or add personal notes – all changes will be seen only by you.

Personal tabs can be accessed anytime from any device, even offline.
Learn more »
Give kudos to tab author, rate the tab!
1 2 3 4 5
comments
print report bad tab
guest
You may want to rate the tab now too:
select rating
Wanna post a correction for this tab? Suggest correction