Oops, an error
Loading. Please wait.

Out Of The Black Acoustic chords

1,861 views 30 this week
1 commentread comment
1 2 3 4 5
1 last vote to show rating
add to favorites
×
Save as Personal and add changes to this tab that will be seen only by you. Learn more ›
×
You can save this tab as Personal to edit and correct it or add notes. All changes will be seen only by you. Learn more »
launch autoscroll
font size
0
reset
transpose
0
reset
display chords
guitar tuner
edit
Autoscroll
slow
fast
+/-
esc
set tempo
stop
Strumming
There is no strumming pattern for this song yet. and get +5 IQ
Drop D tuning DADGBe 

Chords used: 





Intro: 

|-----------------------------|--------------------------------------|
|-----------------------------|--------------------------------------|
|-----------------------------|--------------------------------------|
|-----------------------------|--------------------------------------|
|-----------------------------|--------------------------------------|
|-0--15-15-15-15-15-15-0-15-0-|-0--15-15-15-15-15-15-0-15-15-15-15-0-| [x2]

|----------------------|----------------------------|
|----------------------|----------------------------|
|----------------------|----------------------------|
|-0--------------------|-0--------------------------|
|-0--------------------|-0--------------------------|
|-0--3-3-3-3-3-3-0-3-0-|-0--3-3-3-3-3-3-0-3-3-3-3-0-| [x2]


Verse 1:

Dm         Am           G              F        E
How did it feel when it came alive and took you
Dm         Am        G                    F          E
Out of the black? It broke your skin and shook through
      Dm      Am        Bb      E
Every part of me, every part of you


Chorus: [riff at the bottom]

Dm              F                           E
     You made a fool out of me and took the skin off my back running
Dm            F                           E
     So don't breathe when I talk cuz you haven't been spoken to
Dm              F                     E
     I've got a gun for a mouth and a bullet with your name on it
Dm         F                           E
     But a trigger for a heartbeat and blood for an empty pocket


Break: 

Dm  Am  Bb  E 

Verse 2:

  Dm         Am           G           F   E     
I never knew why and you didn't care when
   Dm           Am    G              F          E
It closed every door, I watched them wait in sin
      Dm       Am           Bb       E
And I promised you like you promised me
          Dm      Am             Bb     E
But those vows we made fucked it up for free


Interlude: [riff at the bottom]

F  E  F  E  


Chorus 2: [riff at the bottom]

Dm              F                           E
     You made a fool out of me and took the skin off my back running
Dm            F                           E
     So don't breathe when I talk cuz you haven't been spoken to
Dm              F                     E
     I've got a gun for a mouth and a bullet with your name on it
Dm         F                           E
     But a trigger for a heartbeat and blood for an empty pocket


[play intro]
[play interlude]

Chorus 3: [riff at the bottom]

Dm              F                           E
     You made a fool out of me and took the skin off my back running
Dm            F                           E
     So don't breathe when I talk cuz you haven't been spoken to
Dm              F                     E
     I've got a gun for a mouth and a bullet with your name on it
Dm         F                           E
     But a trigger for a heartbeat and blood for an empty pocket


Bridge: 

Bb E  Dm F  
Bb E

       Bb       E           Dm       F
And it tortures slow, never lets you go, 
        Bb      E
Deals a crooked hand


Outro riff:

|------------------------------------------------------------------|
|------------------------------------------------------------------|
|------------------------------------------------------------------|
|-------------------------3-3--------------------------------------|
|-5-5-----0-0-----1-1---------4-4-----5-5-----5-5-----4-4-5-5------| 
|-----3-3-----0-0-----3-3---------5-5-----3-3-----2-2---------0-0--| [x4]

|------------------------------------------------------------------------------------------------------|
|------------------------------------------------------------------------------------------------------|
|------------------------------------------------------------------------------------------------------|
|------------------------------------------------------------------------------------------------------|
|-----5-5-----5-5-----4-4-5-5-5-5-----5-5-----5-5-----5-5-----5-5----------------------------8-8-8-8/9-|
|-5-5-----3-3-----2-2-------------5-5-----3-3-----5-5-----3-3-------5-3-5-3-5-3-5-3-5-3-5-3------------|


[play intro once]


[end]




Chorus riff: [as promised]

 Dm                      F                E

|----1-1-1------1-1-1-------------------------------------|
|----3-3-3------3-3-3-------------------------------------|
|----2-2-2------2-2-2-------------------------------------|
|---------------------------------------------------------|
|--------------------------------5-5-5-5----------4-4-4-4-|
|-0--------0-0-----------3-3-3-3----------2-2-2-2---------| [x4]


Interlude riff: [as promised]

|----------------------------------|
|----------------------------------|
|-----------------------------0-0--|
|-------------3-3------------------|
|---------5-5-------------4-4------|
|-3-3-3-3---------2-2-2-2----------| [x2]



            
            
Suggest correction
Creating personal tab
Creating personal tab
You can edit any tab online and save it as your Personal.

You can edit, replace or remove any tab part or add personal notes – all changes will be seen only by you.

Personal tabs can be accessed anytime from any device, even offline.
Learn more »
Give kudos to tab author, rate the tab!
1 2 3 4 5
comments
print report bad tab
1 comment total.
+1 reply
juanambrosini93 10 Sep 21, 2016 03:28 PM

wonderful song

guest
You may want to rate the tab now too:
select rating
Wanna post a correction for this tab? Suggest correction